>
 >
Monument 8

Monument 8 Guitar Tabs

A Day To Remember - Monument 8 chords, tabs, tablatures, lyrics

Guitar lessons | Add/correct | Request | Top 50 tabs Artists:  A B C D E F G H I J K L M N O P Q R S T U V W X Y Z 0-9

Monument 8 Guitar Tabs – A Day To Remember

CD, Sheet music, Poster

Do you like Monument 8? Share with your friends now
Bass TabsBass Tabs v2ChordsChords v2Chords v3Chords v4TabsTabs v2Tabs v3Tabs v4Tabs v5Tabs v6Tabs v7Tabs v8Tabs v9UkuleleUkulele v2
-------------------------------------------------------------------------------
                             Monument Acoustic - A Day To Remember
-------------------------------------------------------------------------------

Tuning:Drop C

INTRO
D|--------------------------------------------|
A|--------------------------------------------|
F|--7--7--7--9--9--9--7--7--7--9--9--9--9--9--|    X2
C|--10-10-10-10-10-10-10-10-10-10-10-10-10-10-|
G|--------------------------------------------|
C|--------------------------------------------|

D|---------------------------------------------------|
A|---------------------------------------------------|
F|--5-5-5-5-5-5-5-5-5-5-5-5-7-7-7-7-7-7-7-7-7-7-7-7--|
C|--3-3-3-3-3-3-3-3-3-3-3-3-5-5-5-5-5-5-5-5-5-5-5-5--|
G|--3-3-3-3-3-3-3-3-3-3-3-3-5-5-5-5-5-5-5-5-5-5-5-5--|
C|--3-3-3-3-3-3-3-3-3-3-3-3-5-5-5-5-5-5-5-5-5-5-5-5--|

D|---------------------------------------------------|
A|---------------------------------------------------|
F|-22255544444555-5555555555555555-------------------|
C|-22222222222222-5555555555555555-------------------|
G|-00000000000000-3333333333333333-------------------|
C|---------------------------------------------------|

D|---------------------------------------------------|
A|---------------------------------------------------|
F|--5-5-5-5-5-5-5-5-5-5-5-5-7-7-7-7-7-7-7-7-7-7-7-7--|
C|--3-3-3-3-3-3-3-3-3-3-3-3-5-5-5-5-5-5-5-5-5-5-5-5--|
G|--3-3-3-3-3-3-3-3-3-3-3-3-5-5-5-5-5-5-5-5-5-5-5-5--|
C|--3-3-3-3-3-3-3-3-3-3-3-3-5-5-5-5-5-5-5-5-5-5-5-5--|

D|---------------------------------------------------|
A|---------------------------------------------------|
F|-22255544444555-5555555555555555-------------------|
C|-22222222222222-5555555555555555-------------------|
G|-00000000000000-3333333333333333-------------------|
C|---------------------------------------------------|

VERSE
D|---------------------------------------------------|
A|---------------------------------------------------|
F|--------------------------2-2-2-2-2-2-2-2-2-2-2-2--|
C|--3-3-3-3-3-3-3-3-3-3-3-3-2-2-2-2-2-2-2-2-2-2-2-2--|
G|--3-3-3-3-3-3-3-3-3-3-3-3-0-0-0-0-0-0-0-0-0-0-0-0--|
C|--3-3-3-3-3-3-3-3-3-3-3-3--------------------------|
PM  . .   . .   . .   . .   . .   . .   . .   . .
D|---------------------------------------------------|
A|---------------------------------------------------|
F|--------------------------2-2-2-2-2-2-2-2-2-2-2-2--|
C|--3-3-3-3-3-3-3-3-3-3-3-3-2-2-2-2-2-2-2-2-2-2-2-2--|
G|--3-3-3-3-3-3-3-3-3-3-3-3-0-0-0-0-0-0-0-0-0-0-0-0--|
C|--3-3-3-3-3-3-3-3-3-3-3-3--------------------------|
PM  . .   . .   . .   . .   . .   . .   . .   . .

CHORUS
D|---------------------------------------------------|
A|---------------------------------------------------|
F|--5-5-5-5-5-5-5-5-5-5-5-5-7-7-7-7-7-7-7-7-7-7-7-7--|
C|--3-3-3-3-3-3-3-3-3-3-3-3-5-5-5-5-5-5-5-5-5-5-5-5--|
G|--3-3-3-3-3-3-3-3-3-3-3-3-5-5-5-5-5-5-5-5-5-5-5-5--|
C|--3-3-3-3-3-3-3-3-3-3-3-3-5-5-5-5-5-5-5-5-5-5-5-5--|

D|---------------------------------------------------|
A|---------------------------------------------------|
F|-22255544444555-5555555555555555-------------------|
C|-22222222222222-5555555555555555-------------------|
G|-00000000000000-3333333333333333-------------------|
C|---------------------------------------------------|

D|---------------------------------------------------|
A|---------------------------------------------------|
F|--5-5-5-5-5-5-5-5-5-5-5-5-7-7-7-7-7-7-7-7-7-7-7-7--|
C|--3-3-3-3-3-3-3-3-3-3-3-3-5-5-5-5-5-5-5-5-5-5-5-5--|
G|--3-3-3-3-3-3-3-3-3-3-3-3-5-5-5-5-5-5-5-5-5-5-5-5--|
C|--3-3-3-3-3-3-3-3-3-3-3-3-5-5-5-5-5-5-5-5-5-5-5-5--|

D|---------------------------------------------------|
A|---------------------------------------------------|
F|-22255544444555-5555555555555555-------------------|
C|-22222222222222-5555555555555555-------------------|
G|-00000000000000-3333333333333333-------------------|
C|---------------------------------------------------|

VERSE
D|------3-------3-------3-------3-------3-------3-----|
A|----3---3---3---3---3---3---3---3---3---3---3---3---|
F|--5-------5-------5-------5-------5-------5-------5-|
C|----------------------------------------------------|
G|----------------------------------------------------|
C|----------------------------------------------------|

D|----------------------------------------|
A|----------------------------------------|
F|---------------------2-2-2-2-2-2-2-2-2~-|    X2
C|--3-3-3-3-3-3-3-3-3~-2-2-2-2-2-2-2-2-2~-|
G|--3-3-3-3-3-3-3-3-3~-0-0-0-0-0-0-0-0-0~-|
C|--3-3-3-3-3-3-3-3-3~--------------------|
PM  . .   . .   . .    . .   . .   . .   

D|---------------------------------------------------|
A|---------------------------------------------------|
F|--------------------------2-2-2-2-2-2-2-2-2-2-2-2--|
C|--3-3-3-3-3-3-3-3-3-3-3-3-2-2-2-2-2-2-2-2-2-2-2-2--|
G|--3-3-3-3-3-3-3-3-3-3-3-3-0-0-0-0-0-0-0-0-0-0-0-0--|
C|--3-3-3-3-3-3-3-3-3-3-3-3--------------------------|

CHORUS
D|---------------------------------------------------|
A|---------------------------------------------------|
F|--5-5-5-5-5-5-5-5-5-5-5-5-7-7-7-7-7-7-7-7-7-7-7-7--|
C|--3-3-3-3-3-3-3-3-3-3-3-3-5-5-5-5-5-5-5-5-5-5-5-5--|
G|--3-3-3-3-3-3-3-3-3-3-3-3-5-5-5-5-5-5-5-5-5-5-5-5--|
C|--3-3-3-3-3-3-3-3-3-3-3-3-5-5-5-5-5-5-5-5-5-5-5-5--|

D|---------------------------------------------------|
A|---------------------------------------------------|
F|-22255544444555-5555555555555555-------------------|
C|-22222222222222-5555555555555555-------------------|
G|-00000000000000-3333333333333333-------------------|
C|---------------------------------------------------|

D|---------------------------------------------------|
A|---------------------------------------------------|
F|--5-5-5-5-5-5-5-5-5-5-5-5-7-7-7-7-7-7-7-7-7-7-7-7--|
C|--3-3-3-3-3-3-3-3-3-3-3-3-5-5-5-5-5-5-5-5-5-5-5-5--|
G|--3-3-3-3-3-3-3-3-3-3-3-3-5-5-5-5-5-5-5-5-5-5-5-5--|
C|--3-3-3-3-3-3-3-3-3-3-3-3-5-5-5-5-5-5-5-5-5-5-5-5--|

D|---------------------------------------------------|
A|---------------------------------------------------|
F|-22255544444555-5555555555555555-------------------|
C|-22222222222222-5555555555555555-------------------|
G|-00000000000000-3333333333333333-------------------|
C|---------------------------------------------------|

(Twenty bucks says...)
D|----------------------------------------------------------------|
A|----------------------------------------------------------------|
F|-7-7-7-7-7-7-7-7-7-7-7-7-7-9-9-9-10-10-10-10-10-10-10-10-10-10--|
C|-7-7-7-7-7-7-7-7-7-7-7-7-7-9-9-9-10-10-10-10-10-10-10-10-10-10--|
G|-5-5-5-5-5-5-5-5-5-5-5-5-5-7-7-7-8--8--8--8--8--8--8--8--8--8---|
C|----------------------------------------------------------------|
PM . . . . . . . . . . . . . . . . .  .  .  .  .  .  .  .  .  .

D|-------------------------------------------------------------|
A|-------------------------------------------------------------|
F|-2-2-2-2-2-2-2-2-2-2-2-2-2-2---------------------------------|
C|-2-2-2-2-2-2-2-2-2-2-2-2-2-2-5-5-5-5-5-5-5-5-5-5-5-5-5-5-5-5-|
G|-0-0-0-0-0-0-0-0-0-0-0-0-0-0-5-5-5-5-5-5-5-5-5-5-5-5-5-5-5-5-|
C|-----------------------------5-5-5-5-5-5-5-5-5-5-5-5-5-5-5-5-|
PM . . . . . . . . . . . . . . . . . . . . . . . . . . . . . . 

D|----------------------------------------------------------------|
A|----------------------------------------------------------------|
F|-7-7-7-7-7-7-7-7-7-7-7-7-7-9-9-9-10-10-10-10-10-10-10-10-10-10--|
C|-7-7-7-7-7-7-7-7-7-7-7-7-7-9-9-9-10-10-10-10-10-10-10-10-10-10--|
G|-5-5-5-5-5-5-5-5-5-5-5-5-5-7-7-7-8--8--8--8--8--8--8--8--8--8---|
C|----------------------------------------------------------------|
                                                                       X2
D|-------------------------------------------------------------|
A|-------------------------------------------------------------|
F|-2-2-2-2-2-2-2-2-2-2-2-2-2-2---------------------------------|
C|-2-2-2-2-2-2-2-2-2-2-2-2-2-2-5-5-5-5-5-5-5-5-5-5-5-5-5-5-5-5-|
G|-0-0-0-0-0-0-0-0-0-0-0-0-0-0-5-5-5-5-5-5-5-5-5-5-5-5-5-5-5-5-|
C|-----------------------------5-5-5-5-5-5-5-5-5-5-5-5-5-5-5-5-|

(And I'll scream...)
D|----------------------------------------------------------------------|
A|----------------------------------------------------------------------|
F|-7~-9-9-10~-2-2-2-2-2-2-2-2-2-2-2-2-2-2-------------------------------|
C|-7~-9-9-10~-2-2-2-2-2-2-2-2-2-2-2-2-2-2-5-5-5-5-5-5-5-5-5-5-5-5-5-5---|X2 
G|-5~-7-7-8~--0-0-0-0-0-0-0-0-0-0-0-0-0-0-5-5-5-5-5-5-5-5-5-5-5-5-5-5---|
C|----------------------------------------5-5-5-5-5-5-5-5-5-5-5-5-5-5---|

(Twenty bucks says...)
D|----------------------------|
A|----------------------------|
F|-7~-9-9-10~-2~--------------|
C|-7~-9-9-10~-2~-5~-5-5-3~----|
G|-5~-7-7-8~--0~-5~-5-5-3~----|
C|---------------5~-5-5-3~----|

There you go.
Enjoy!
Please Email back and tell me how I did.
Thank you!





Comments


Popular A Day To Remember tabs & chords
Nj Legion Iced Tea 2 Bass Tabs
Monument 4 Chords
The Downfall Of Us All 2 Chords
All Signs Point To Lauderdale Tabs
Have Faith In Me Tabs
Have Faith In Me 3 Tabs
Heartless 2 Tabs
Since U Been Gone Tabs
Your Way With Words Is Through Silence 1 Tabs
Colder Than My Heart If You Can Imagine Ukulele


Song lyrics



↑ Back to top | Tablatures and chords are parodies/interpretations of the original songs. You may use it for private study, scholarship, research or language learning purposes only
© 2014 AZChords.com Contact us | Privacy policy | DMCA | Add/correct tabs | Request tabs | Top 50 tabs