» » »

A Day To Remember, In Over My Head Tabs (ver.1)

Artists:  A B C D E F G H I J K L M N O P Q R S T U V W X Y Z # 

In Over My Head Tabs (ver.1)

A Day To Remember Tabs
 Rating:
4/5 (4 votes)
In Over My Head lessons Tabs too difficult? Try these video lessons and learn fast
                Clean Intro

         | x3  |
D|------------------------------------------------------|
A|--3-----3--3--3------3-3-3-3-3-3-3-3-3-3-3-3-3-3-3-3--|
F|--2-----0--2--2------0-0-0-0-2-2-2-2-2-2-2-2-2-2-2-2--|
C|--0-----2--2--0------2-2-2-2-2-2-2-2-0-0-0-0-0-0-0-0--|
G|--0-----2--0--0------2-2-2-2-0-0-0-0-0-0-0-0-0-0-0-0--|
C|------------------------------------------------------|

First Verse

D|---------------------------------------|
A|---------------------------------------|
F|---------------------------------------|
C|------5-5-5-5-5-5-5-5-9-9-9-7-7-7-7-7--|
G|--12\-5-5-5-5-5-5-5-5-9-9-9-5-5-5-5-5--|
C|--12\-5-5-5-5-5-5-5-5-9-9-9------------|
        * *   * *   *   * *   * *   *
D|-----------------------------------|
A|-----------------------------------|
F|-----------------------------------|
C|--5-5-5-5-5-5-5-5-9-9-9-7-7-7-7-7--|
G|--5-5-5-5-5-5-5-5-9-9-9-7-7-7-7-7--|
C|--5-5-5-5-5-5-5-5-9-9-9-7-7-7-7-7--|
    * *   * *   *   * *   * *   *
D|-----------------------------------|
A|-----------------------------------|
F|-----------------------------------|
C|--5-5-5-5-5-5-5-5-9-9-9-7-7-7-7-7--|
G|--5-5-5-5-5-5-5-5-9-9-9-5-5-5-5-5--|
C|--5-5-5-5-5-5-5-5-9-9-9------------|
    * *   * *   *   * *   * *   *

Riff During Verse

D|--5-------------------|
A|-----7-----------7----|
F|--------7--6s7s6---7--|
C|----------------------|
G|----------------------|
C|----------------------|


Pre-Chorus

  x4    x4    x7
D|---| |---| |---|
A|---| |---| |---|
F|---| |---| |---|
C|-9-| |-5-| |-7-|
G|-7-| |-7-| |-7-|
C|---| |---| |-7-|

Chorus

D|-----------------------------------|
A|-----------------------------------|
F|-----------------------------------|
C|--5-5-5-5-0-0-0-0-9-9-9-9-7-7-7-7--|x4
G|--5-5-5-5-0-0-0-0-9-9-9-9-7-7-7-7--|
C|--5-5-5-5-0-0-0-0-9-9-9-9-7-7-7-7--|

Second Verse

D|-------------------------------------|
A|-------------------------------------|
F|-------------------------------------|
C|--5-5-5-5-5-5-5-5-9----9-------------|
G|--5-5-5-5-5-5-5-5-9----9-5555555555--|
C|--5-5-5-5-5-5-5-5-9-99-9-------------|
    * *   * *   *   * **   **********
D|-------------------------------------|
A|-------------------------------------|
F|-------------------------------------|
C|--5-5-5-5-5-5-5-5-9----9-------------|
G|--5-5-5-5-5-5-5-5-9----9-------------|
C|--5-5-5-5-5-5-5-5-9-99-9-7777777777--|
    * *   * *   *   * **   **********
D|-------------------------------------|
A|-------------------------------------|
F|-------------------------------------|
C|--5-5-5-5-5-5-5-5-9----9-------------|
G|--5-5-5-5-5-5-5-5-9----9-5555555555--|
C|--5-5-5-5-5-5-5-5-9-99-9-------------|
    * *   * *   *   * **   **********

D|----| |----| |----|
A|----| |----| |----|
F|----| |----| |----|
C|-9~-| |-5~-| |-7~-| Pickslide into breakdown
G|-7~-| |-7~-| |-7~-|
C|----| |----| |-7~-|

Breakdown

D|--------------------------------|
A|--------------------------------|
F|--------------------------------|
C|----------------------77777777--|
G|55555-5-5-5-5--5--999-55555555--|
C|55555-5-5-5-5--5--999-----------|
  ***** * * * *  *  *** ********
D|--------------------------------|
A|--------------------------------|
F|--------------------------------|
C|--------------------------------|
G|55555-5-5-5-5--5--999-77777777--|
C|55555-5-5-5-5--5--999-77777777--|
  ***** * * * *  *  *** ********
D|--------------------------------|
A|--------------------------------|
F|--------------------------------|
C|----------------------77777777--|
G|55555-5-5-5-5--5--999-55555555--|
C|55555-5-5-5-5--5--999-----------|
  ***** * * * *  *  *** ********
D|---------------------------------|
A|---------------------------------|
F|---------------------------------|
C|--9--5-5-5-----------------------|
G|--7--7-7-7--7---7-7-7--77777777--|
C|------------7---7-7-7--77777777--|
    *  * * *  *   * * *  ********

          |Chorus x8|

I do a pinch harmonic on the first fret of the low E and dive bomb for the noise before 
second breakdown.

Second Breakdown

D|-----------------------------------------------------------------|
A|-----------------------------------------------------------8-----|
F|-----------------------------------------------------------b^10--|
C|-----------------------------------------0-----------------------|
G|--0-0-0---000-00-0-0-0---00000000-0-0-0--0--000-00-0-0-0---------|
C|--0-0-0---000-00-0-0-0---00000000-0-0-0--0--000-00-0-0-0---------|
    * * *   *** ** * * *   ******** * * *     *** ** * * *

          |First Verse and Pre-Chorus|


Clean Chorus Slowdown

D|-----------------|
A|--3---3---3---3--|
F|--0---2---4---2--|
C|--0---0---4---2--|x4
G|--x---0---2---0--|
C|--5--------------|
            
Submit corrections

comments powered by Disqus
↑ Back to top | A Day To Remember Tabs for In Over My Head. Lyrics for acoustic guitar and electric guitar. Tablatures and chords are parodies/interpretations of the original songs. You may use it for private study, scholarship, research or language learning purposes only