» » »

If I Leave Tabs (ver.1)

Artists:  A B C D E F G H I J K L M N O P Q R S T U V W X Y Z # 

If I Leave Tabs (ver.1)

A Day To Remember
Rating:
0/5 (0 votes)

Hard to play? Try these video lessons and learn fast.
                d/--2--2--2--2--2---2--2--2--2--2-------------------------------------------|
a/-0--0--0--0--0-0-0--0--0--0--0-0------------------------------------------|
f/1---------------1---------------------------------------------------------|
c/---2---------------2------------------------------------------------------|
g/------2--2--2---------2--2--2---------------------------------------------|
c/--------------------------------------------------------------------------|

d/------------------------------------------------------------------------------------------|
a/------------------------------------------------------------------------------------------|
f/------------4-4-4-------------------------4-4-4-------------------------4-4-4-------------|
c/6-6-6-2-2-2-4-4-4-4-4-4-4-4-4-6-6-6-2-2-2-4-4-4-4-4-4-4-4-4-6-6-6-2-2-2-4-4-4-4-4-4-4-4-4-|
g/6-6-6-2-2-2-2-2-2-4-4-4-4-4-4-6-6-6-2-2-2-2-2-2-4-4-4-4-4-4-6-6-6-2-2-2-2-2-2-4-4-4-4-4-4-|
c/6-6-6-2-2-2-------4-4-4-4-4-4-6-6-6-2-2-2-------4-4-4-4-4-4-6-6-6-2-2-2-------4-4-4-4-4-4-|


          not sure the strumming after the slide
d/-------------------------------------------------------------------------------------|
a/-------------------------------------------------------------------------------------|
f/-------------------------------------------------------------------------------------|
c/2-2-2-2-2-2-2-2-2-2-2-2----4-2222-22-2222----4-2222-22-2222----4-6666-66-6666----6---|
g/2-2-2-2-2-2-2-2-2-2-2-2---4--2222-22-2222---4--2222-22-2222---4--6666-66-6666---6----|
c/2-2-2-2-2-2-2-2-2-2-2-2-/4---2222-22-2222-/4---2222-22-2222-/4---6666-66-6666-/6-----|

d/-------------|
a/-------------|
f/-------------|
c/4444-44-4444-| x 3 from the first slide.
g/4444-44-4444-|
c/4444-44-4444-|

d/--------------------------------------------------------------------|
a/--------------------------------------------------------------------|
f/--------------------------------------------------------------------|
c/6-6-6-4-4-4-2-2-2-2-2-2-2-2-2-2-6-6-6-4-4-4-2-2-2-2-2-2-2-2-2-2 x 2-|
g/6-6-6-4-4-4-2-2-2-2-2-2-2-2-2-2-6-6-6-4-4-4-2-2-2-2-2-2-2-2-2-2-----|
c/6-6-6-4-4-4-2-2-2-2-2-2-2-2-2-2-6-6-6-4-4-4-2-2-2-2-2-2-2-2-2-2-----|

d/------------------------------------------------------------------------------------------------|
a/------------------------------------------------------------------------------------------------|
f/4-4-4-4-4-4-4-4-4-4-4-4-4-4-4-4-----------------------------------------------------------------|
c/4-4-4-4-4-4-4-4-4-4-4-4-4-4-4-4-4-4-4-4-4-4-4-4-4-4-4-4-4-4-4-4-6-6-6-6-6-6-6-6-6-6-6-6-6-6-6-6-|
g/2-2-2-2-2-2-2-2-2-2-2-2-2-2-2-2-4-4-4-4-4-4-4-4-4-4-4-4-4-4-4-4-6-6-6-6-6-6-6-6-6-6-6-6-6-6-6-6-|
c/--------------------------------4-4-4-4-4-4-4-4-4-4-4-4-4-4-4-4-6-6-6-6-6-6-6-6-6-6-6-6-6-6-6-6-|

d/--------------------------------|
a/--------------------------------|
f/--------------------------------|
c/2-2-2-2-2-2-2-2-2-2-2-2-2-2-2-2-| x 2
g/2-2-2-2-2-2-2-2-2-2-2-2-2-2-2-2-|
c/2-2-2-2-2-2-2-2-2-2-2-2-2-2-2-2-|

thats all i got so far!!!
            
Hard to play? Try these video lessons and learn fast. | Correct




comments powered by Disqus
↑ Back to top | Tablatures and chords are parodies/interpretations of the original songs. You may use it for private study, scholarship, research or language learning purposes only