» » »

Have Faith In Me Bass tabs (ver.4)

Artists:  A B C D E F G H I J K L M N O P Q R S T U V W X Y Z # 

Have Faith In Me Bass tabs (ver.4)

A Day To Remember
Rating:
0/5 (0 votes)

Tabs too difficult? Try these video lessons and learn fast.
                Intro
G|-------------------------------------------------------------------------|
D|-------------------------------------------------------------------------|
A|22-------------22--------------22-------------22-------------------------|
C|---00-55-22-55----x00-55-22-55----00-55-22-55----x00-55-22-55------------|


Verse 1
G|------------------------------------------|
D|------------------------------------------|
A|22-------------22-------------------------|
C|---00-55-22-55----x00-55-2222-5555--------|


Chorus 1
G|-------------------------------------------------------------------------|
D|-------------------------------------------------------------------------|
A|-------------------------------------------------------------------------|
C|9999999999999999-0000000000000000-5555555555555555-7777777777777777------|


Verse 2
G|------------------------------------------|
D|------------------------------------------| X 2
A|22222222----------------------------------|
C|---------00000000-55555555-2222-5555------|

G|------------------------------------------|
D|------------------------------------------|
A|22-------------22-------------------------|
C|---00-55-22-55----x00-55-22-55------------|


Chorus 2
G|--------------------------------------------------------------------|
D|--------------------------------------------------------------------| X 2
A|--------------------------------------------------------------------|
C|9999999999999999-0000000000000000-5555555555555555-7777777777777777-|

Bridge
G|------------------------------------|
D|------------------------------------| X 3
A|------------------------------------|
C|555-x555-99-9999-777-x77-22-4444----|

G|------------------------------------|
D|------------------------------------| 
A|------------------------------------|
C|555-x555-55-5555-777-x77-77-7777----|

G|------------------------------------|
D|------------------------------------|
A|22-------------22-------------------|
C|---00-55-22-55----x00-55------------|

Chorus 3
G|--------------------------------------------------------------------|
D|--------------------------------------------------------------------| X 2
A|--------------------------------------------------------------------|
C|9999999999999999-0000000000000000-5555555555555555-7777777777777777-|

Outro
G|---------------------------------------|
D|---------------------------------------| X 2
A|------------------22222222-------------|
C|55555555-22222222----------00000000----|
            
Tabs too difficult? Try these video lessons and learn fast.


comments powered by Disqus
↑ Back to top | Tablatures and chords are parodies/interpretations of the original songs. You may use it for private study, scholarship, research or language learning purposes only