» » »

Have Faith In Me Bass tabs (ver.3)

Artists:  A B C D E F G H I J K L M N O P Q R S T U V W X Y Z # 

Have Faith In Me Bass tabs (ver.3)

A Day To Remember
Rating:
0/5 (0 votes)
Tabs too difficult? Try these video lessons and learn fast.
                For You Five-Sting Players :)

Intro
G|-------------------------------------------------------------------------|
D|-------------------------------------------------------------------------|
A|-------------------------------------------------------------------------|
E|55-------------55--------------55-------------55-------------------------|
B|---11-66-33-66----x11-66-33-66----11-66-33-66----x11-66-33-66------------|


Verse
G|------------------------------------------|
D|------------------------------------------|
A|------------------------------------------|
E|55-------------55-------------------------|
B|---11-66-33-66----x11-66-3333-6666--------|


Chorus
G|-------------------------------------------------------------------------|
D|-------------------------------------------------------------------------|
A|-------------------------------------------------------------------------|
E|5555555555555555---------------------------------------------------------|
B|-----------------1111111111111111-6666666666666666-8888888888888888------|


Verse
G|------------------------------------------|
D|------------------------------------------| X 2
A|------------------------------------------|
E|55555555----------------------------------|
B|---------11111111-66666666-3333-6666------|

G|------------------------------------------|
D|------------------------------------------|
A|------------------------------------------|
E|55-------------55-------------------------|
B|---11-66-33-66----x11-66-33-66------------|


Chorus
G|-------------------------------------------------------------------------|
D|-------------------------------------------------------------------------|
A|-------------------------------------------------------------------------|x2
E|5555555555555555---------------------------------------------------------|
B|-----------------1111111111111111-6666666666666666-8888888888888888------|

Bridge
G|------------------------------------|
D|------------------------------------| X 3
A|------------------------------------|
E|---------55-5555--------------------|
B|666-x666---------888-x88-33-5555----|

G|------------------------------------|
D|------------------------------------| 
A|------------------------------------|
E|------------------------------------|
B|666-x666-66-6666-888-x88-88-8888----|

G|------------------------------------|
D|------------------------------------|
A|------------------------------------|
E|55-------------55-------------------|
B|---11-66-33-66----x11-66------------|

Chorus
G|-------------------------------------------------------------------------|
D|-------------------------------------------------------------------------|
A|-------------------------------------------------------------------------|x2
E|5555555555555555---------------------------------------------------------|
B|-----------------1111111111111111-6666666666666666-8888888888888888------|

G|---------------------------------------|
D|---------------------------------------| X 2
A|---------------------------------------|
E|------------------55555555-------------|
B|66666666-33333333----------88888888----|
            
Tabs too difficult? Try these video lessons and learn fast.


comments powered by Disqus
↑ Back to top | Tablatures and chords are parodies/interpretations of the original songs. You may use it for private study, scholarship, research or language learning purposes only