>
 >
Have Faith In Me 1

Have Faith In Me 1 Guitar Tabs

A Day To Remember - Have Faith In Me 1 chords, tabs, tablatures, lyrics

Guitar lessons | Add/correct | Request | Top 50 tabs Artists:  A B C D E F G H I J K L M N O P Q R S T U V W X Y Z 0-9

Have Faith In Me 1 Guitar Tabs – A Day To Remember

CD, Sheet music, Poster

Do you like Have Faith In Me 1? Share with your friends now
Bass TabsBass Tabs v2Bass Tabs v3Bass Tabs v4Bass Tabs v5ChordsChords v2TabsTabs v2Tabs v3Tabs v4Tabs v5Tabs v6Tabs v7Ukulele
----------------------------------------------------------------------------
                   HAVE FAITH IN ME by A DAY TO REMEMBER
                           on the HOMESICK album
----------------------------------------------------------------------------

TUNING: Drop C (CGCFAD)


.  palm mute
~  hold note
x  mute string



INTRO:

D|-----------------------------------------|
A|----10---10---10---10---8---8---7---7----|
F|--7----7----7----7----7---7---7---7------|  (x8)
C|-----------------------------------------|
G|-----------------------------------------|
C|-----------------------------------------|


VERSE:

Guitar 1 (x4)

D|-----------------------------------------|
A|----10---10---10---10---8---8---7---7----|
F|--7----7----7----7----7---7---7---7------|
C|-----------------------------------------|
G|-----------------------------------------|
C|-----------------------------------------|


Guitar 2

D|------------------------------------------------------------|
A|------------------------------------------------------------|
F|------------------------------------------------------------|
C|--99---00---55---22--55--99----00---55---2-2-2-2-5-5-5-5----|
G|--99---00---55---22--55--99----00---55---2-2-2-2-5-5-5-5----|
C|--99---00---55---22--55--99----00---55---2-2-2-2-5-5-5-5----|
    ..   ..   ..   ..  ..  ..    ..   ..   . . . .
                                          (slowly release palm mute)

CHORUS:

Guitar 1

D|-------------------------------------------------------------------------|
A|-------------------------------------------------------------------------|
F|--77777777--14-14-14-14-14-14-14-14--77777777--14-14-14-14-14-14-14-14---|
C|--xxxxxxxx--x--x--x--x--x--x--x--x---xxxxxxxx--x--x--x--x--x--x--x--x----|
G|--55555555--12-12-12-12-12-12-12-12--55555555--12-12-12-12-12-12-12-12---|
C|-------------------------------------------------------------------------|

D|-------------------------------------------------------------------------|
A|-------------------------------------------------------------------------|
F|-7-7-7-7--9-11-9-7--7-7-7-7--9-11-9-9--66666666-12-12-12-12-11-11-11-11--|
C|-x-x-x-x--x-x--x-x--x-x-x-x--x-x--x-x--xxxxxxxx-x--x--x--x--x--x--x--x---|
G|-5-5-5-5--7-9--7-5--5-5-5-5--7-9--7-7--44444444-10-10-10-10-9--9--9--9---|
C|-------------------------------------------------------------------------|


Guitar 2

D|----------------------------------------------------------------------|
A|----------------------------------------------------------------------|
F|----------------------------------------------------------------------|
C|--9-9-9-9-9-9-9-9-9-9-9-9-9-9-9-9--0-0-0-0-0-0-0-0-0-0-0-0-0-0-0-0----|
G|--9-9-9-9-9-9-9-9-9-9-9-9-9-9-9-9--0-0-0-0-0-0-0-0-0-0-0-0-0-0-0-0----|
C|--9-9-9-9-9-9-9-9-9-9-9-9-9-9-9-9--0-0-0-0-0-0-0-0-0-0-0-0-0-0-0-0----|

D|----------------------------------------------------------------------|
A|----------------------------------------------------------------------|
F|----------------------------------------------------------------------|
C|--5-5-5-5-5-5-5-5-5-5-5-5-5-5-5-5--7-7-7-7-7-7-7-7-7-7-7-7-7-7-7-7----|
G|--5-5-5-5-5-5-5-5-5-5-5-5-5-5-5-5--7-7-7-7-7-7-7-7-7-7-7-7-7-7-7-7----|
C|--5-5-5-5-5-5-5-5-5-5-5-5-5-5-5-5--7-7-7-7-7-7-7-7-7-7-7-7-7-7-7-7----|


VERSE, PART 1:

Both Guitars (x2)

D|-------------------------------------------------------------------------|
A|-------------------------------------------------------------------------|
F|-------------------------------------------------------------------------|
C|------9---9-9---9------0---0---0-0------5---5-5---5------2----5---5-5----|
G|--9-9-9-9-9-9-9-9--0-0-0-0-0-0-0-0--5-5-5-5-5-5-5-5--2-2-2-2--5-5-5-5----|
C|--9-9-9-9-9-9-9-9--0-0-0-0-0-0-0-0--5-5-5-5-5-5-5-5--2-2-2-2--5-5-5-5----|
    . .   .     .    . .   .   .      . .   .     .    . .   .    .


VERSE, PART 2:

(Guitar 1 is in parentheses.)  Guitar 2 is normal.

D|---------------------------------------------|
A|-----(7~)-----(7)--------(7~)-----(7)--------|
F|-----(7~)--(7)---(7)-----(7~)--(7)---(7)-----|
C|--99------------------00---------------------|
G|--99------------------00---------------------|
C|--99------------------00---------------------|

D|---------------------------------------------|
A|-----(7~)-----(7)--------(7~)-----(7)--------|
F|-----(7~)--(7)---(7)-----(7~)--(7)---(7)-----|
C|--55------------------22------55-------------|
G|--55------------------22------55-------------|
C|--55------------------22------55-------------|

D|-----------------------------------------------------------------|
A|-----(7~)-----(7)--------(7~)-----(7)--------(7~)-----(7)--------|
F|-----(7~)--(7)---(7)-----(7~)--(7)---(7)-----(7~)--(7)---(7)-----|
C|--99--------------------00----------------55---------------------|
G|--99--------------------00----------------55---------------------|
C|--99--------------------00----------------55---------------------|

and then both guitars play...

D|--------------------|
A|--------------------|
F|--------------------|
C|--2-2-2-2-5-5-5-5---|
G|--2-2-2-2-5-5-5-5---|
C|--2-2-2-2-5-5-5-5---|
    . . . .     (slowly release palm mute)


CHORUS:

Guitar 1 (x2)

D|-------------------------------------------------------------------------|
A|-------------------------------------------------------------------------|
F|--77777777--14-14-14-14-14-14-14-14--77777777--14-14-14-14-14-14-14-14---|
C|--xxxxxxxx--x--x--x--x--x--x--x--x---xxxxxxxx--x--x--x--x--x--x--x--x----|
G|--55555555--12-12-12-12-12-12-12-12--55555555--12-12-12-12-12-12-12-12---|
C|-------------------------------------------------------------------------|

D|-------------------------------------------------------------------------|
A|-------------------------------------------------------------------------|
F|-7-7-7-7--9-11-9-7--7-7-7-7--9-11-9-9--66666666-12-12-12-12-11-11-11-11--|
C|-x-x-x-x--x-x--x-x--x-x-x-x--x-x--x-x--xxxxxxxx-x--x--x--x--x--x--x--x---|
G|-5-5-5-5--7-9--7-5--5-5-5-5--7-9--7-7--44444444-10-10-10-10-9--9--9--9---|
C|-------------------------------------------------------------------------|


Guitar 2 (x2)

D|----------------------------------------------------------------------|
A|----------------------------------------------------------------------|
F|----------------------------------------------------------------------|
C|--9-9-9-9-9-9-9-9-9-9-9-9-9-9-9-9--0-0-0-0-0-0-0-0-0-0-0-0-0-0-0-0----|
G|--9-9-9-9-9-9-9-9-9-9-9-9-9-9-9-9--0-0-0-0-0-0-0-0-0-0-0-0-0-0-0-0----|
C|--9-9-9-9-9-9-9-9-9-9-9-9-9-9-9-9--0-0-0-0-0-0-0-0-0-0-0-0-0-0-0-0----|

D|----------------------------------------------------------------------|
A|----------------------------------------------------------------------|
F|----------------------------------------------------------------------|
C|--5-5-5-5-5-5-5-5-5-5-5-5-5-5-5-5--7-7-7-7-7-7-7-7-7-7-7-7-7-7-7-7----|
G|--5-5-5-5-5-5-5-5-5-5-5-5-5-5-5-5--7-7-7-7-7-7-7-7-7-7-7-7-7-7-7-7----|
C|--5-5-5-5-5-5-5-5-5-5-5-5-5-5-5-5--7-7-7-7-7-7-7-7-7-7-7-7-7-7-7-7----|


BREAKDOWN:

D|-------------------------------------------------------------------------|
A|-------------------------------------------------------------------------|
F|-------------------------------------------------------------------------|
C|--555-x555-99-9999-777-x777-22-4444--555-x555-99-9999-777-x777-22-4444---|
G|--555-x555-99-9999-777-x777-22-4444--555-x555-99-9999-777-x777-22-4444---|
C|--555-x555-99-9999-777-x777-22-4444--555-x555-99-9999-777-x777-22-4444---|

D|-------------------------------------------------------------------------|
A|-------------------------------------------------------------------------|
F|-------------------------------------------------------------------------|
C|-555-x555-99-9999-777-x777-22-4444--555-x555-55-5555-777-x777-77-7777-9~-|
G|-555-x555-99-9999-777-x777-22-4444--555-x555-55-5555-777-x777-77-7777-9~-|
C|-555-x555-99-9999-777-x777-22-4444--555-x555-55-5555-777-x777-77-7777-9~-|


PRECHORUS:

Guitar 1

D|-------------------------------------------------------------------------|
A|---10---10---10---10---8---8---7---7---10---10---10---10---8---8---7---7-|
F|-7----7----7----7----7---7---7---7---7----7----7----7----7---7---7---7---|
C|-------------------------------------------------------------------------|
G|-------------------------------------------------------------------------|
C|-------------------------------------------------------------------------|

and then...
               
                Guitar 1                    Guitar 1  Guitar 2
D|----------------------------------------||--------||--------||
A|----10---10---10---10---8---8---7---7---||---10---||--------||
F|--7----7----7----7----7---7---7---7-----||---7----||--------||
C|----------------------------------------||--------||---55---||
G|----------------------------------------||--------||---55---||
C|----------------------------------------||--------||---55---||
                                                         ..

CHORUS:

Guitar 1 (x2)

D|-------------------------------------------------------------------------|
A|-------------------------------------------------------------------------|
F|--77777777--14-14-14-14-14-14-14-14--77777777--14-14-14-14-14-14-14-14---|
C|--xxxxxxxx--x--x--x--x--x--x--x--x---xxxxxxxx--x--x--x--x--x--x--x--x----|
G|--55555555--12-12-12-12-12-12-12-12--55555555--12-12-12-12-12-12-12-12---|
C|-------------------------------------------------------------------------|

D|-------------------------------------------------------------------------|
A|-------------------------------------------------------------------------|
F|-7-7-7-7--9-11-9-7--7-7-7-7--9-11-9-9--66666666-12-12-12-12-11-11-11-11--|
C|-x-x-x-x--x-x--x-x--x-x-x-x--x-x--x-x--xxxxxxxx-x--x--x--x--x--x--x--x---|
G|-5-5-5-5--7-9--7-5--5-5-5-5--7-9--7-7--44444444-10-10-10-10-9--9--9--9---|
C|-------------------------------------------------------------------------|


Guitar 2 (x2)

D|----------------------------------------------------------------------|
A|----------------------------------------------------------------------|
F|----------------------------------------------------------------------|
C|--9-9-9-9-9-9-9-9-9-9-9-9-9-9-9-9--0-0-0-0-0-0-0-0-0-0-0-0-0-0-0-0----|
G|--9-9-9-9-9-9-9-9-9-9-9-9-9-9-9-9--0-0-0-0-0-0-0-0-0-0-0-0-0-0-0-0----|
C|--9-9-9-9-9-9-9-9-9-9-9-9-9-9-9-9--0-0-0-0-0-0-0-0-0-0-0-0-0-0-0-0----|

D|----------------------------------------------------------------------|
A|----------------------------------------------------------------------|
F|----------------------------------------------------------------------|
C|--5-5-5-5-5-5-5-5-5-5-5-5-5-5-5-5--7-7-7-7-7-7-7-7-7-7-7-7-7-7-7-7----|
G|--5-5-5-5-5-5-5-5-5-5-5-5-5-5-5-5--7-7-7-7-7-7-7-7-7-7-7-7-7-7-7-7----|
C|--5-5-5-5-5-5-5-5-5-5-5-5-5-5-5-5--7-7-7-7-7-7-7-7-7-7-7-7-7-7-7-7----|


OUTRO:

D|------------------------------------------------------------------------|
A|------------------------------------------------------------------------|
F|------------------------------------------------------------------------|
C|--5-5-5-5-5-5-5-5--2-2-2-2-2-2-2-2--9-9-9-9-9-9-9-9--0-0-0-0-0-0-0-0----|
G|--5-5-5-5-5-5-5-5--2-2-2-2-2-2-2-2--9-9-9-9-9-9-9-9--0-0-0-0-0-0-0-0----|
C|--5-5-5-5-5-5-5-5--2-2-2-2-2-2-2-2--9-9-9-9-9-9-9-9--0-0-0-0-0-0-0-0----|
    . . . . . . . .  . . . . . . . .  . . . . . . . .  . . . . . . . .

D|------------------------------------------------------------|
A|------------------------------------------------------------|
F|------------------------------------------------------------|
C|--5-5-5-5-5-5-5-5--2-2-2-2-2-2-2-2--9-9-9-9-9-9-9-9--0-0----|
G|--5-5-5-5-5-5-5-5--2-2-2-2-2-2-2-2--9-9-9-9-9-9-9-9--0-0----|
C|--5-5-5-5-5-5-5-5--2-2-2-2-2-2-2-2--9-9-9-9-9-9-9-9--0-0----|
    . . . . . . . .  . . . . . . . .  . . . . . . . .  . .





Comments


Popular A Day To Remember tabs & chords
Im Made Of Wax Larry What Are You Made Of 4 Bass Tabs
Over My Head Cable Car Bass Tabs
You Already Know What You Are Bass Tabs
Another Song About The Weekend 2 Chords
End Of Me Chords
Im Already Gone 1 Chords
Plot To Bomb The Panhandle Tabs
The Price We Pay Tabs
When 3s A Crowd 1 Tabs
Over My Head Cable Car Ukulele


Song lyrics



↑ Back to top | Tablatures and chords are parodies/interpretations of the original songs. You may use it for private study, scholarship, research or language learning purposes only
© 2014 AZChords.com Contact us | Privacy policy | DMCA | Add/correct tabs | Request tabs | Top 50 tabs