» » »

Fast Forward To 2012 Tabs (ver.3)

Artists:  A B C D E F G H I J K L M N O P Q R S T U V W X Y Z # 

Fast Forward To 2012 Tabs (ver.3)

A Day To Remember
Rating:
0/5 (0 votes)

Tabs too difficult? Try these video lessons and learn fast.
                

Legend
L - tied note
x - dead note
s - slide
M - palm mute


D |----------------------------|----------------------------|
A |----------------------------|----------------------------|
F |----------------------------|----------------------------|
C |--7-----7--7L-7--7--7--7----|--5-----5--5L-5--5--5--5----|
G |--5-----5--5L-5--5--5--5----|--5-----5--5L-5--5--5--5----|
C |--5-----5--5L-5--5--5--5----|--5-----5--5L-5--5--5--5----|


----------------------------|----------------------------|
----------------------------|----------------------------|
----------------------------|----------------------------|
--7-----7--7L-7--7--7--7----|--5-----5--5L-5--5--5--5----|
--5-----5--5L-5--5--5--5----|--5-----5--5L-5--5--5--5----|
--5-----5--5L-5--5--5--5----|--5-----5--5L-5--5--5--5----|


----------------------------|----------------------------|
----------------------------|----------------------------|
----------------------------|----------------------------|
--0-----0--0L-0--0--0--0----|--0-----0--0L-0--0--0--0----|
--0-----0--0L-0--0--0--0----|--0-----0--0L-0--0--0--0----|
--0-----0--0L-0--0--0--0----|--0-----0--0L-0--0--0--0----|


----------------------------|-------|----------------------------|
----------------------------|-------|----------------------------|
----------------------------|-------|----------------------------|
--3-----3--3L-3--3--3--3----|--3----|--7-----7--7L-7--7--7--7----|
--3-----3--3L-3--3--3--3----|--3----|--5-----5--5L-5--5--5--5----|
--3-----3--3L-3--3--3--3----|--3----|--5-----5--5L-5--5--5--5----|


----------------------------|----------------------------|
----------------------------|----------------------------|
----------------------------|----------------------------|
--5-----5--5L-5--5--5--5----|--7-----7--7L-7--7--7--7----|
--5-----5--5L-5--5--5--5----|--5-----5--5L-5--5--5--5----|
--5-----5--5L-5--5--5--5----|--5-----5--5L-5--5--5--5----|


----------------------------|----------------------------|
----------------------------|----------------------------|
----------------------------|----------------------------|
--5-----5--5L-5--5--5--5----|--0-----0--0L-0--0--0--0----|
--5-----5--5L-5--5--5--5----|--0-----0--0L-0--0--0--0----|
--5-----5--5L-5--5--5--5----|--0-----0--0L-0--0--0--0----|


----------------------------|----------------------------|-------|-------|
----------------------------|----------------------------|-------|-------|
----------------------------|----------------------------|-------|-------|
--0-----0--0L-0--0--0--0----|--3-----3--3L-3--3--3--3----|--3----|--5L---|
--0-----0--0L-0--0--0--0----|--3-----3--3L-3--3--3--3----|--3----|--5L---|
--0-----0--0L-0--0--0--0----|--3-----3--3L-3--3--3--3----|--3----|--5L---|


-------|-------|----------------------------------------------------|-------|
-------|-------|----------------------------------------------------|-------|
-------|-------|----------------------------------------------------|-------|
--5----|--10---|--5--------5--------5--------5----------------------|--0----|
--5----|--8----|--5--------5--------5--------5----------------------|--0L---|
--5----|--8----|--5--------5--------5--------5----------------------|--0L---|


-------|-------|-------|-------|-------|----------------------------|
-------|-------|-------|-------|-------|----------------------------|
-------|-------|-------|-------|-------|----------------------------|
-------|--0L---|--0----|--0L---|--0----|--0-------------------------|
--0----|--0L---|--0----|--0L---|--0----|--0-----0--0--0--0--0--0----|
--0----|--0L---|--0----|--0L---|--0----|--0-----0--0--0--0--0--0----|


----------------------------------------------------|
----------------------------------------------------|
----------------------------------------------------|
----------------------------------------------------|
-->>>>>>>!PICKSLIDE!<<<<<<<<<<<<<<<<<<<<<<<<<<<<<---|
--16s15s14s13s12s11s10s9s-8s-7s-6s-5s-4s-3s-2s-1----|


----------------------------|----------------------------|
----------------------------|----------------------------|
----------------------------|----------------------------|
----------------------------|----------------------------|
--0-----12-12-12-12-0--0----|--8--8--8--8--3--5--3--0L---|
--0-----12-12-12-12-0M-0M---|--8--8--8--8--3--5--3--0L---|


----------------------------|----------------------------|
----------------------------|----------------------------|
----------------------------|----------------------------|
----------------------------|--------------x--x--x-------|
--0-----12-12-12-12-0--0----|--8--8--8--8--x--x--x--0L---|
--0-----12s12-12-12-0M-0M---|--8--8--8--8--x--x--x--0L---|


----------------------------|----------------------------|
----------------------------|----------------------------|
----------------------------|----------------------------|
----------------------------|----------------------------|
--0-----12-12-12-12-0--0----|--8--8--8--8--3--5--3--0L---|
--0-----12s12-12-12-0M-0M---|--8--8--8--8--3--5--3--0L---|


----------------------------|----------------------------|-------|-------|
----------------------------|----------------------------|-------|-------|
----------------------------|----------------------------|-------|-------|
----------------------------|--------------x--x--x--x----|-------|-------|
--0-----12-12-12-12-0--0----|--8--8--8--8--x--x--x--x----|--0L---|--0L---|
--0-----12s12-12-12-0M-0M---|--8--8--8--8--x--x--x--x----|--0L---|--0L---|


-------|-------|----------------------------------------------------|
-------|-------|----------------------------------------------------|
-------|-------|----------------------------------------------------|
-------|-------|----------------------------------------------------|
--0L---|--0----|----------------------------------------------------|
--0L---|--0----|--0M----0M----0M----------------0M-0M-0M-0M-0M-0M---|


----------------------------------------------------|
----------------------------------------------------|
----------------------------------------------------|
----------------------------------------------------|
----------------------------------------------------|
--0M----------------------0M-0M-0M-0M-0M------------|


----------------------------------------------------|
----------------------------------------------------|
----------------------------------------------------|
----------------------------------------------------|
----------------------------------------------------|
--0M----0M----0M----------------0M-0M-0M-0M-0M-0M---|


----------------------------|
----------------------------|
----------------------------|
----------------------------|
----------------------------|
--0M------------------------|


----------------------------------------------------|
----------------------------------------------------|
----------------------------------------------------|
----------------------------------------------------|
----------------------------------------------------|
--0M----0M----0L----0M----------0M-0M-0M-0M-0M-0M---|


----------------------------------------------------|
----------------------------------------------------|
----------------------------------------------------|
----------------------------------------------------|
----------------------------------------------------|
--0L----0M----------------0M-0M-0M-0M-0L----0M------|


----------------------------------------------------|
----------------------------------------------------|
----------------------------------------------------|
----------------------------------------------------|
----------------------------------------------------|
--0M----0M----0L----0M----------0M-0M-0M-0M-0M-0M---|


----------------------------------------------------|
----------------------------------------------------|
----------------------------------------------------|
----------------------------------------------------|
----------------------------------------------------|
--0L----0M----------------0M-0M-0M-0M-0L----0M------|


----------------------------------------------------|
----------------------------------------------------|
----------------------------------------------------|
----------------------------------------------------|
----------------------------------------------------|
--0M----0M----0L----0M----------0M-0M-0M-0M-0M-0M---|


----------------------------------------------------|
----------------------------------------------------|
----------------------------------------------------|
----------------------------------------------------|
----------------------------------------------------|
--0L----0M----------------0M-0M-0M-0M-0L----0M------|


----------------------------------------------------|
----------------------------------------------------|
----------------------------------------------------|
----------------------------------------------------|
----------------------------------------------------|
--0M----0M----0L----0M----------0M-0M-0M-0M-0M-0M---|


----------------------------------------------------|
----------------------------------------------------|
----------------------------------------------------|
----------------------------------------------------|
----------------------------------------------------|
--0L----0M----------------0M-0M-0M-0M-0M------------|


----------------------------------------------------|
----------------------------------------------------|
----------------------------------------------------|
----------------------------------------------------|
----------------------------------------------------|
--0M----0M----0M----------------0M-0M-0M-0M-0M-0M---|


----------------------------------------------------|
----------------------------------------------------|
----------------------------------------------------|
----------------------------------------------------|
----------------------------------------------------|
--0M----------------------0M-0M-0M-0M-0M------------|


----------------------------------------------------|
----------------------------------------------------|
----------------------------------------------------|
----------------------------------------------------|
----------------------------------------------------|
--0M----0M----0M----------------0M-0M-0M-0M-0M-0M---|


----------------------------------------------------|
----------------------------------------------------|
----------------------------------------------------|
----------------------------------------------------|
----------------------------------------------------|
--0M----------------------0M-0M-0M-0M-0M------------|


----------------------------------------------------|
----------------------------------------------------|
----------------------------------------------------|
----------------------------------------------------|
----------------------------------------------------|
--0M----0M----0M----------------0M-0M-0M-0M-0M-0M---|


----------------------------------------------------|
----------------------------------------------------|
----------------------------------------------------|
----------------------------------------------------|
----------------------------------------------------|
--0M----------------------0M-0M-0M-0M-0M------------|


----------------------------------------------------|
----------------------------------------------------|
----------------------------------------------------|
----------------------------------------------------|
----------------------------------------------------|
--0M----0M----0M----------------0M-0M-0M-0M-0M-0M---|


----------------------------||
----------------------------||
----------------------------||
----------------------------||
----------------------------||
--0M------------------------||
            
Tabs too difficult? Try these video lessons and learn fast.


comments powered by Disqus
↑ Back to top | Tablatures and chords are parodies/interpretations of the original songs. You may use it for private study, scholarship, research or language learning purposes only