>
 >
Better Off This Way 2

Better Off This Way 2 Guitar Tabs

A Day To Remember - Better Off This Way 2 chords, tabs, tablatures, lyrics

Guitar lessons | Add/correct | Request | Top 50 tabs Artists:  A B C D E F G H I J K L M N O P Q R S T U V W X Y Z 0-9

Better Off This Way 2 Guitar Tabs – A Day To Remember

CD, Sheet music, Poster

Do you like Better Off This Way 2? Share with your friends now
Bass TabsChordsChords v2Chords v3TabsTabs v2Tabs v3Tabs v4Tabs v5Ukulele
rythem guitar

Intro 
c#|-------------------------------------------------|
G#|-------------------------------------------------|
 E|-------------------------------------------------|
 B|--2-----2----------------------------------------|
F#|--2-----2----------------------------------------|
 B|--2-----2----------------------------------------|

c#|-------------------------------------------------|
G#|-------------------------------------------------|
 E|-------------------------------------------------|
 B|--2-----2----------------------------------------|
F#|--2-----2----------------------------------------|
 B|--2-----2----------------------------------------|

c#|-------------------------------------------------|
G#|-------------------------------------------------|
 E|-------------------------------------------------|
 B|--5-----5----------------------------------------|
F#|--3-----3----------------------------------------|
 B|--2-----2----------------------------------------|

c#|-------------------------------------------------|
G#|-------------------------------------------------|
 E|-------------------------------------------------|
 B|--5-----5----------------------------------------|
F#|--3-----3-----------------------Pickslide--------|
 B|--2-----2-----------------------Pickslide--------|

Verse

c#|-------------------------------------------------|
G#|-------------------------------------------------|
 E|-------------------------------------------------|
 B|--2-----2----------------------------------------|
F#|--2-----2-----2--2--2--2--2--2--5--5--5--0--0--0-|
 B|--2-----2-----2--2--2--2--2--2--5--5--5--0--0--0-|
                 .  .  .  .  .  .  .  .  .  .  .  .
c#|-------------------------------------------------|
G#|-------------------------------------------------|
 E|-------------------------------------------------|
 B|--2-----2----------------------------------------|
F#|--2-----2-----2--2--2--2--2--2--5--5--5--0--0--0-|
 B|--2-----2-----2--2--2--2--2--2--5--5--5--0--0--0-|
                 .  .  .  .  .  .  .  .  .  .  .  .
c#|-------------------------------------------------|
G#|-------------------------------------------------|
 E|-------------------------------------------------|
 B|--5-----5----------------------------------------|
F#|--3-----3-----3--3--3--3--3--3--5--5--5--0--0--0-|
 B|--2-----2-----2--2--2--2--2--2--5--5--5--0--0--0-|
                 .  .  .  .  .  .  .  .  .  .  .  .
c#|-------------------------------------------------|
G#|-------------------------------------------------|
 E|-------------------------------------------------|
 B|--5-----5-----------------------------x--x--x--x-|
F#|--3-----3-----3--3--3--3--3--3--5--5--x--x--x--x-|
 B|--2-----2-----2--2--2--2--2--2--5--5--x--x--x--x-|
                 .  .  .  .  .  .  .  .            

Chorus 

c#|-------------------------------------------------|
G#|-------------------------------------------------|
 E|-------------------------------------------------|
 B|-10-10-10-10-10-10-10-10--5--5--5--5--5--5--5--5-|
F#|-10-10-10-10-10-10-10-10--5--5--5--5--5--5--5--5-|
 B|-10-10-10-10-10-10-10-10--5--5--5--5--5--5--5--5-|

c#|-------------------------------------------------|
G#|-------------------------------------------------|
 E|-------------------------------------------------|
 B|--0--0--0--0--0--0--0--0--0--0--0--0--0--0--0--0-|
F#|--0--0--0--0--0--0--0--0--0--0--0--0--0--0--0--0-|
 B|--0--0--0--0--0--0--0--0--0--0--0--0--0--0--0--0-|

c#|-------------------------------------------------|
G#|-------------------------------------------------|
 E|-------------------------------------------------|
 B|-10-10-10-10-10-10-10-10--5--5--5--5--5--5--5--5-|
F#|-10-10-10-10-10-10-10-10--5--5--5--5--5--5--5--5-|
 B|-10-10-10-10-10-10-10-10--5--5--5--5--5--5--5--5-|

c#|-------------------------------------------------|
G#|-------------------------------------------------|
 E|-------------------------------------------------|
 B|--0--0--0--0--0--0--0--0--0--0--0--0--0--0--0--0-|
F#|--0--0--0--0--0--0--0--0--0--0--0--0--0--0--0--0-|
 B|--0--0--0--0--0--0--0--0--0--0--0--0--0--0--0--0-|

c#|-------------------------------------------------|
G#|-------------------------------------------------|
 E|-------------------------------------------------|
 B|-10-10-10-10-10-10-10-10--5--5--5--5--5--5--5--5-|
F#|-10-10-10-10-10-10-10-10--5--5--5--5--5--5--5--5-|
 B|-10-10-10-10-10-10-10-10--5--5--5--5--5--5--5--5-|

c#|-------------------------------------------------|
G#|-------------------------------------------------|
 E|-------------------------------------------------|
 B|--0--0--0--0--0--0--0--0--0--0--0--0--0--0--0--0-|
F#|--0--0--0--0--0--0--0--0--0--0--0--0--0--0--0--0-|
 B|--0--0--0--0--0--0--0--0--0--0--0--0--0--0--0--0-|

c#|-------------------------------------------------|
G#|-------------------------------------------------|
 E|-------------------------------------------------|
 B|-10-10-10-10-10-10-10-10--5--5--5--5--5--5--5--5-|
F#|-10-10-10-10-10-10-10-10--5--5--5--5--5--5--5--5-|
 B|-10-10-10-10-10-10-10-10--5--5--5--5--5--5--5--5-|

c#|-------------------------------------------------|
G#|-------------------------------------------------|
 E|-------------------------------------------------|
 B|--0--0--0--0--0--0--0--0--0--0--0--0--0--0--0--0-|
F#|--0--0--0--0--0--0--0--0--0--0--0--0--0--0--0--0-|
 B|--0--0--0--0--0--0--0--0--0--0--0--0--0--0--0--0-|

Post chorus 

c#|-------------------------------------------------|
G#|-------------------------------------------------|
 E|-------------------------------------------------|
 B|----10----10-10--------------5-----5--5----------|
F#|----10----10-10--------------5-----5--5----------|
 B|----10----10-10--------------5-----5--5----------|

c#|-------------------------------------------------|
G#|-------------------------------------------------|
 E|-------------------------------------------------|
 B|-----0-----0--0--------------0-----0--0----------|
F#|-----0-----0--0--------------0-----0--0----------|
 B|-----0-----0--0--------------0-----0--0----------|

c#|-------------------------------------------------|
G#|-------------------------------------------------|
 E|-------------------------------------------------|
 B|----10----10-10--------------5-----5--5----------|
F#|----10----10-10--------------5-----5--5----------|
 B|----10----10-10--------------5-----5--5----------|

c#|-------------------------------------------------|
G#|-------------------------------------------------|
 E|-------------------------------------------------|
 B|-----0-----0--0--------------0--0--0--0--0--0--0-|
F#|-----0-----0--0--------------0--0--0--0--0--0--0-|
 B|-----0-----0--0--------------0--0--0--0--0--0--0-|

Verse

c#|-------------------------------------------------|
G#|-------------------------------------------------|
 E|-------------------------------------------------|
 B|--2-----2----------------------------------------|
F#|--2-----2-----2--2--2--2--2--2--5--5--5--0--0--0-|
 B|--2-----2-----2--2--2--2--2--2--5--5--5--0--0--0-|
                 .  .  .  .  .  .  .  .  .  .  .  .
c#|-------------------------------------------------|
G#|-------------------------------------------------|
 E|-------------------------------------------------|
 B|--2-----2----------------------------------------|
F#|--2-----2-----2--2--2--2--2--2--5--5--5--0--0--0-|
 B|--2-----2-----2--2--2--2--2--2--5--5--5--0--0--0-|
                 .  .  .  .  .  .  .  .  .  .  .  .
c#|-------------------------------------------------|
G#|-------------------------------------------------|
 E|-------------------------------------------------|
 B|--5-----5----------------------------------------|
F#|--3-----3-----3--3--3--3--3--3--5--5--5--0--0--0-|
 B|--2-----2-----2--2--2--2--2--2--5--5--5--0--0--0-|
                 .  .  .  .  .  .  .  .  .  .  .  .
c#|-------------------------------------------------|
G#|-------------------------------------------------|
 E|-------------------------------------------------|
 B|--5-----5-----------------------------x--x--x--x-|
F#|--3-----3-----3--3--3--3--3--3--5--5--x--x--x--x-|
 B|--2-----2-----2--2--2--2--2--2--5--5--x--x--x--x-|
                 .  .  .  .  .  .  .  .           
Breakdown  

c#|--------------------------------------------------|
G#|--------------------------------------------------|
 E|--------------------------------------------------|
 B|--2-----2--2--2--2--------------------------------|
F#|--2-----2--2--2--2--------------2-2-2--0-----0----|
 B|--2-----2--2--2--2--------------2-2-2--0-----0----|
                                   . . .  .     .   
c#|--------------------------------------------------|
G#|--------------------------------------------------|
 E|--------------------------------------------------|
 B|--2-----2--2--2--2--------------------------------|
F#|--2-----2--2--2--2--------------2-2-2--0----------|
 B|--2-----2--2--2--2--------------2-2-2--0----------|
                                   . . .  .         
c#|--------------------------------------------------|
G#|--------------------------------------------------|
 E|--------------------------------------------------|
 B|--5-----5--5--5--5--------------------------------|
F#|--3-----3--3--3--3--------------3-3-3--3-----3----|
 B|--2-----2--2--2--2--------------2-2-2--2-----2----|
                                   . . .  .     .
c#|-------------------------------------------------|
G#|-------------------------------------------------|
 E|-------------------------------------------------|
 B|--5-----5--5--5--5--5--5--5--5--5--5--x--x--x--x-|
F#|--3-----3--3--3--3--3--3--3--3--5--5--x--x--x--x-|
 B|--2-----2--2--2--2--2--2--2--2--5--5--x--x--x--x-|

Chorus

c#|-------------------------------------------------|
G#|-------------------------------------------------|
 E|-------------------------------------------------|
 B|-10-10-10-10-10-10-10-10--5--5--5--5--5--5--5--5-|
F#|-10-10-10-10-10-10-10-10--5--5--5--5--5--5--5--5-|
 B|-10-10-10-10-10-10-10-10--5--5--5--5--5--5--5--5-|

c#|-------------------------------------------------|
G#|-------------------------------------------------|
 E|-------------------------------------------------|
 B|--0--0--0--0--0--0--0--0--0--0--0--0--0--0--0--0-|
F#|--0--0--0--0--0--0--0--0--0--0--0--0--0--0--0--0-|
 B|--0--0--0--0--0--0--0--0--0--0--0--0--0--0--0--0-|

c#|-------------------------------------------------|
G#|-------------------------------------------------|
 E|-------------------------------------------------|
 B|-10-10-10-10-10-10-10-10--5--5--5--5--5--5--5--5-|
F#|-10-10-10-10-10-10-10-10--5--5--5--5--5--5--5--5-|
 B|-10-10-10-10-10-10-10-10--5--5--5--5--5--5--5--5-|

c#|-------------------------------------------------|
G#|-------------------------------------------------|
 E|-------------------------------------------------|
 B|--0--0--0--0--0--0--0--0--0--0--0--0--0--0--0--0-|
F#|--0--0--0--0--0--0--0--0--0--0--0--0--0--0--0--0-|
 B|--0--0--0--0--0--0--0--0--0--0--0--0--0--0--0--0-|

c#|-------------------------------------------------|
G#|-------------------------------------------------|
 E|-------------------------------------------------|
 B|-10-10-10-10-10-10-10-10--5--5--5--5--5--5--5--5-|
F#|-10-10-10-10-10-10-10-10--5--5--5--5--5--5--5--5-|
 B|-10-10-10-10-10-10-10-10--5--5--5--5--5--5--5--5-|

c#|-------------------------------------------------|
G#|-------------------------------------------------|
 E|-------------------------------------------------|
 B|--0--0--0--0--0--0--0--0--0--0--0--0--0--0--0--0-|
F#|--0--0--0--0--0--0--0--0--0--0--0--0--0--0--0--0-|
 B|--0--0--0--0--0--0--0--0--0--0--0--0--0--0--0--0-|

c#|-------------------------------------------------|
G#|-------------------------------------------------|
 E|-------------------------------------------------|
 B|-10-10-10-10-10-10-10-10--5--5--5--5--5--5--5--5-|
F#|-10-10-10-10-10-10-10-10--5--5--5--5--5--5--5--5-|
 B|-10-10-10-10-10-10-10-10--5--5--5--5--5--5--5--5-|

c#|-------------------------------------------------|
G#|-------------------------------------------------|
 E|-------------------------------------------------|
 B|--0--0--0--0--0--0--0--0--0--0--0--0--0--0--0--0-|
F#|--0--0--0--0--0--0--0--0--0--0--0--0--0--0--0--0-|
 B|--0--0--0--0--0--0--0--0--0--0--0--0--0--0--0--0-|

Post chorus 2

c#|-------------------------------------------------|
G#|-------------------------------------------------|
 E|-------------------------------------------------|
 B|----10----10-10--------------5-----5--5----------|
F#|----10----10-10--------------5-----5--5----------|
 B|----10----10-10--------------5-----5--5----------|

c#|-------------------------------------------------|
G#|-------------------------------------------------|
 E|-------------------------------------------------|
 B|-----0-----0--0--------------0-----0--0----------|
F#|-----0-----0--0--------------0-----0--0----------|
 B|-----0-----0--0--------------0-----0--0----------|

c#|-------------------------------------------------|
G#|-------------------------------------------------|
 E|-------------------------------------------------|
 B|----10----10-10--------------5-----5--5----------|
F#|----10----10-10--------------5-----5--5----------|
 B|----10----10-10--------------5-----5--5----------|

c#|-------------------------------------------------|
G#|-------------------------------------------------|
 E|-------------------------------------------------|
 B|-----0-----0--0--------------0-----0--0--0--0--0-|
F#|-----0-----0--0--------------0-----0--0--0--0--0-|
 B|-----0-----0--0--------------0-----0--0--0--0--0-|

Interlude

c#|-------------------------------------------------|
G#|-------------------------------------------------|
 E|-------------------------------------------------|
 B|-10----10----10-10-10-10-10----10----10-10-10-10-|
F#|-10----10----10-10-10-10-10----10----10-10-10-10-|
 B|-10----10----10-10-10-10-10----10----10-10-10-10-|

c#|-------------------------------------------------|
G#|-------------------------------------------------|
 E|-------------------------------------------------|
 B|--5--5--5--5--5--5--5--5--0--0--0--0--0--0--0--0-|
F#|--5--5--5--5--5--5--5--5--0--0--0--0--0--0--0--0-|
 B|--5--5--5--5--5--5--5--5--0--0--0--0--0--0--0--0-|

c#|-------------------------------------------------|
G#|-------------------------------------------------|
 E|-------------------------------------------------|
 B|-10----10----10-10-10-10-10----10----10-10-10-10-|
F#|-10----10----10-10-10-10-10----10----10-10-10-10-|
 B|-10----10----10-10-10-10-10----10----10-10-10-10-|

c#|-------------------------------------------------|
G#|-------------------------------------------------|
 E|-------------------------------------------------|
 B|--5--5--5--5--5--5--5--5--0--0--0--0--0--0--0--0-|
F#|--5--5--5--5--5--5--5--5--0--0--0--0--0--0--0--0-|
 B|--5--5--5--5--5--5--5--5--0--0--0--0--0--0--0--0-|

c#|-------------------------------------------------|
G#|-------------------------------------------------|
 E|-------------------------------------------------|
 B|-10----10----10-10-10-10-10----10----10-10-10-10-|
F#|-10----10----10-10-10-10-10----10----10-10-10-10-|
 B|-10----10----10-10-10-10-10----10----10-10-10-10-|

c#|-------------------------------------------------|
G#|-------------------------------------------------|
 E|-------------------------------------------------|
 B|--5--5--5--5--5--5--5--5--0--0--0--0--0--0--0--0-|
F#|--5--5--5--5--5--5--5--5--0--0--0--0--0--0--0--0-|
 B|--5--5--5--5--5--5--5--5--0--0--0--0--0--0--0--0-|

c#|-------------------------------------------------|
G#|-------------------------------------------------|
 E|-------------------------------------------------|
 B|-10----10----10-10-10-10-10----10----10-10-10-10-|
F#|-10----10----10-10-10-10-10----10----10-10-10-10-|
 B|-10----10----10-10-10-10-10----10----10-10-10-10-|

c#|-------------------------------------------------|
G#|-------------------------------------------------|
 E|-------------------------------------------------|
 B|--5--5--5--5--5--5--5--5--0--0--0--0--0--0--0--0-|
F#|--5--5--5--5--5--5--5--5--0--0--0--0--0--0--0--0-|
 B|--5--5--5--5--5--5--5--5--0--0--0--0--0--0--0--0-|

Bridge
Lead guitar plays a couple chords and plays a harmonic at the beginning of the bridge

c#|-------------------------------------------------|
G#|-------------------------------------------------|
 E|-------------------------------------------------|
 B|----10----10-10--------------5-----5--5----------|
F#|----10----10-10--------------5-----5--5----------|
 B|----10----10-10--------------5-----5--5----------|

c#|-------------------------------------------------|
G#|-------------------------------------------------|
 E|-------------------------------------------------|
 B|-----0-----0--0--------------0-----0--0--0--0--0-|
F#|-----0-----0--0--------------0-----0--0--0--0--0-|
 B|-----0-----0--0--------------0-----0--0--0--0--0-|

Chorus 2

c#|-------------------------------------------------|
G#|-------------------------------------------------|
 E|-------------------------------------------------|
 B|-10-10-10-10-10-10-10-10--5--5--5--5--5--5--5--5-|
F#|-10-10-10-10-10-10-10-10--5--5--5--5--5--5--5--5-|
 B|-10-10-10-10-10-10-10-10--5--5--5--5--5--5--5--5-|

c#|-------------------------------------------------|
G#|-------------------------------------------------|
 E|-------------------------------------------------|
 B|--0--0--0--0--0--0--0--0--0--0--0--0--0--0--0--0-|
F#|--0--0--0--0--0--0--0--0--0--0--0--0--0--0--0--0-|
 B|--0--0--0--0--0--0--0--0--0--0--0--0--0--0--0--0-|

c#|-------------------------------------------------|
G#|-------------------------------------------------|
 E|-------------------------------------------------|
 B|-10-10-10-10-10-10-10-10--5--5--5--5--5--5--5--5-|
F#|-10-10-10-10-10-10-10-10--5--5--5--5--5--5--5--5-|
 B|-10-10-10-10-10-10-10-10--5--5--5--5--5--5--5--5-|

c#|-------------------------------------------------|
G#|-------------------------------------------------|
 E|-------------------------------------------------|
 B|--0--0--0--0--0--0--0--0--0--0--0--0--0--0--0--0-|
F#|--0--0--0--0--0--0--0--0--0--0--0--0--0--0--0--0-|
 B|--0--0--0--0--0--0--0--0--0--0--0--0--0--0--0--0-|

c#|-------------------------------------------------|
G#|-------------------------------------------------|
 E|-------------------------------------------------|
 B|-10-10-10-10-10-10-10-10--5--5--5--5--5--5--5--5-|
F#|-10-10-10-10-10-10-10-10--5--5--5--5--5--5--5--5-|
 B|-10-10-10-10-10-10-10-10--5--5--5--5--5--5--5--5-|

c#|-------------------------------------------------|
G#|-------------------------------------------------|
 E|-------------------------------------------------|
 B|--0--0--0--0--0--0--0--0--0--0--0--0--0--0--0--0-|
F#|--0--0--0--0--0--0--0--0--0--0--0--0--0--0--0--0-|
 B|--0--0--0--0--0--0--0--0--0--0--0--0--0--0--0--0-|

c#|-------------------------------------------------|
G#|-------------------------------------------------|
 E|-------------------------------------------------|
 B|-10-10-10-10-10-10-10-10--5--5--5--5--5--5--5--5-|
F#|-10-10-10-10-10-10-10-10--5--5--5--5--5--5--5--5-|
 B|-10-10-10-10-10-10-10-10--5--5--5--5--5--5--5--5-|

c#|-------------------------------------------------|
G#|-------------------------------------------------|
 E|-------------------------------------------------|
 B|--0--0--0--0--0--0--0--0--0--0--0--0--0--0--0--0-|
F#|--0--0--0--0--0--0--0--0--0--0--0--0--0--0--0--0-|
 B|--0--0--0--0--0--0--0--0--0--0--0--0--0--0--0--0-|

Outro

c#|-------------------------------------------------|
G#|-------------------------------------------------|
 E|-------------------------------------------------|
 B|----10----10-10--------------5-----5--5----------|
F#|----10----10-10--------------5-----5--5----------|
 B|----10----10-10--------------5-----5--5----------|

c#|-------------------------------------------------|
G#|-------------------------------------------------|
 E|-------------------------------------------------|
 B|-----0-----0--0--------------0-----0--0----------|
F#|-----0-----0--0--------------0-----0--0----------|
 B|-----0-----0--0--------------0-----0--0----------|

  |GTR II
c#|-------------------------------------------------|
G#|-------------------------------------------------|
 E|-------------------------------------------------|
 B|----10----10-10--------------5-----5--5----------|
F#|----10----10-10--------------5-----5--5----------|
 B|----10----10-10--------------5-----5--5----------|

c#|-------------------------------------------------|
G#|-------------------------------------------------|
 E|-------------------------------------------------|
 B|-----0-----0--0-----------0----------------------|
F#|-----0-----0--0-----------0----------------------|
 B|-----0-----0--0-----------0----------------------|





Comments


Popular A Day To Remember tabs & chords
All I Want Chords
If It Means A Lot To You 6 Chords
Im Already Gone 2 Chords
1958 2 Tabs
Holdin It Down For The Underground Intro Tabs
Monument 2 Tabs
This Is The House That Doubt Built 1 Tabs
Welcome To The Family Tabs
When 3s A Crowd Tabs
Monument 2 Ukulele


Song lyrics



↑ Back to top | Tablatures and chords are parodies/interpretations of the original songs. You may use it for private study, scholarship, research or language learning purposes only
© 2014 AZChords.com Contact us | Privacy policy | DMCA | Add/correct tabs | Request tabs | Top 50 tabs