>
 >
Better Off This Way 1

Better Off This Way 1 Guitar Tabs

A Day To Remember - Better Off This Way 1 chords, tabs, tablatures, lyrics

Guitar lessons | Add/correct | Request | Top 50 tabs Artists:  A B C D E F G H I J K L M N O P Q R S T U V W X Y Z 0-9

Better Off This Way 1 Guitar Tabs – A Day To Remember

CD, Sheet music, Poster

Do you like Better Off This Way 1? Share with your friends now
Bass TabsChordsChords v2Chords v3TabsTabs v2Tabs v3Tabs v4Tabs v5Ukulele

I can only really get the rythm guitar out of it so... sorry if you wanna know the lead...
This is such a legit song. And if you like it check out the rest of the album... even better.

Verse:
c#|------------------------------------------------------------------------|
g#|------------------------------------------------------------------------|
e |------------------------------------------------------------------------|
b |-2----2----2-2-2-2-2-2-2-2--5-5-5-5-5-5-5--0-0-0-0-0-0-0----------------|
f#|-2----2----2-2-2-2-2-2-2-2--5-5-5-5-5-5-5--0-0-0-0-0-0-0----------------|
B |-2----2----2-2-2-2-2-2-2-2--5-5-5-5-5-5-5--0-0-0-0-0-0-0----------------|
              ...............  .............  .............

c#|------------------------------------------------------------------------|
g#|------------------------------------------------------------------------|
e |------------------------------------------------------------------------|
b |-2----2----2-2-2-2-2-2-2-2--5-5-5-5-5-5-5--0-0-0-0-0-0-0----------------|
f#|-2----2----2-2-2-2-2-2-2-2--5-5-5-5-5-5-5--0-0-0-0-0-0-0----------------|
B |-2----2----2-2-2-2-2-2-2-2--5-5-5-5-5-5-5--0-0-0-0-0-0-0----------------|
              ...............  .............  .............

c#|------------------------------------------------------------------------|
g#|------------------------------------------------------------------------|
e |------------------------------------------------------------------------|
b |-5----5----5-5-5-5-5-5-5-5--5-5-5-5-5-5-5--0-0-0-0-0-0-0----------------|
f#|-3----3----3-3-3-3-3-3-3-3--5-5-5-5-5-5-5--0-0-0-0-0-0-0----------------|
B |-2----2----2-2-2-2-2-2-2-2--5-5-5-5-5-5-5--0-0-0-0-0-0-0----------------|
              ...............  .............  .............

c#|------------------------------------------------------------------------|
g#|------------------------------------------------------------------------|
e |------------------------------------------------------------------------|
b |-5----5----5-5-5-5-5-5-5-5--5-5-5-5-5-5-5--0-0-0-0-0-0-0----------------|
f#|-3----3----3-3-3-3-3-3-3-3--5-5-5-5-5-5-5--0-0-0-0-0-0-0----------------|
B |-2----2----2-2-2-2-2-2-2-2--5-5-5-5-5-5-5--0-0-0-0-0-0-0----------------|
              ...............  .............  .............

All instruments come in with pickslide

c#|------------------------------------------------------------------------|
g#|------------------------------------------------------------------------|
e |----------///////////////////////---------------------------------------|
b |----------///////pickslide///////---------------------------------------|
f#|----------///////////////////////---------------------------------------|
B |----------///////////////////////---------------------------------------|


c#|------------------------------------------------------------------------|
g#|------------------------------------------------------------------------|
e |------------------------------------------------------------------------|
b |-2----2----2-2-2-2-2-2-2-2--5-5-5-5-5-5-5--0-0-0-0-0-0-0----------------|
f#|-2----2----2-2-2-2-2-2-2-2--5-5-5-5-5-5-5--0-0-0-0-0-0-0----------------|
B |-2----2----2-2-2-2-2-2-2-2--5-5-5-5-5-5-5--0-0-0-0-0-0-0----------------|
              ...............  .............  .............

c#|------------------------------------------------------------------------|
g#|------------------------------------------------------------------------|
e |------------------------------------------------------------------------|
b |-2----2----2-2-2-2-2-2-2-2--5-5-5-5-5-5-5--0-0-0-0-0-0-0----------------|
f#|-2----2----2-2-2-2-2-2-2-2--5-5-5-5-5-5-5--0-0-0-0-0-0-0----------------|
B |-2----2----2-2-2-2-2-2-2-2--5-5-5-5-5-5-5--0-0-0-0-0-0-0----------------|
              ...............  .............  .............

c#|------------------------------------------------------------------------|
g#|------------------------------------------------------------------------|
e |------------------------------------------------------------------------|
b |-5----5----5-5-5-5-5-5-5-5--5-5-5-5-5-5-5--0-0-0-0-0-0-0----------------|
f#|-3----3----3-3-3-3-3-3-3-3--5-5-5-5-5-5-5--0-0-0-0-0-0-0----------------|
B |-2----2----2-2-2-2-2-2-2-2--5-5-5-5-5-5-5--0-0-0-0-0-0-0----------------|
              ...............  .............  .............

c#|------------------------------------------------------------------------|
g#|------------------------------------------------------------------------|
e |------------------------------------------------------------------------|
b |-5----5----5-5-5-5-5-5-5-5--5-5-5-5-5-5-5--x-x-x-x-x--------------------|
f#|-3----3----3-3-3-3-3-3-3-3--5-5-5-5-5-5-5--x-x-x-x-x--------------------|
B |-2----2----2-2-2-2-2-2-2-2--5-5-5-5-5-5-5--x-x-x-x-x--------------------|
              ...............  .............

Chorus:

c#|------------------------------------------------------------------------|
g#|------------------------------------------------------------------------|
e |-5-5-5-5-5-5-5----------------------------------------------------------|
b |-5-5-5-5-5-5-5---5-5-5-5-5-5-5-5-5-5-5-5---0-0-0-0-0-0-0-0-0-0-0-0-0-0--|
f#|-3-3-3-3-3-3-3---5-5-5-5-5-5-5-5-5-5-5-5---0-0-0-0-0-0-0-0-0-0-0-0-0-0--|
B |-----------------5-5-5-5-5-5-5-5-5-5-5-5---0-0-0-0-0-0-0-0-0-0-0-0-0-0--|


c#|------------------------------------------------------------------------|
g#|------------------------------------------------------------------------|
e |-5-5-5-5-5-5-5----------------------------------------------------------|
b |-5-5-5-5-5-5-5---5-5-5-5-5-5-5-5-5-5-5-5---0-0-0-0-0-0-0-0-0-0-0-0-0-0--|
f#|-3-3-3-3-3-3-3---5-5-5-5-5-5-5-5-5-5-5-5---0-0-0-0-0-0-0-0-0-0-0-0-0-0--|
B |-----------------5-5-5-5-5-5-5-5-5-5-5-5---0-0-0-0-0-0-0-0-0-0-0-0-0-0--|



c#|------------------------------------------------------------------------|
g#|------------------------------------------------------------------------|
e |-5-5-5-5-5-5-5----------------------------------------------------------|
b |-5-5-5-5-5-5-5---5-5-5-5-5-5-5-5-5-5-5-5---0-0-0-0-0-0-0-0-0-0-0-0-0-0--|
f#|-3-3-3-3-3-3-3---5-5-5-5-5-5-5-5-5-5-5-5---0-0-0-0-0-0-0-0-0-0-0-0-0-0--|
B |-----------------5-5-5-5-5-5-5-5-5-5-5-5---0-0-0-0-0-0-0-0-0-0-0-0-0-0--|



c#|------------------------------------------------------------------------|
g#|------------------------------------------------------------------------|
e |-5-5-5-5-5-5-5----------------------------------------------------------|
b |-5-5-5-5-5-5-5---5-5-5-5-5-5-5-5-5-5-5-5---0-0-0-0-0-0-0-0-0-0-0-0-0-0--|
f#|-3-3-3-3-3-3-3---5-5-5-5-5-5-5-5-5-5-5-5---0-0-0-0-0-0-0-0-0-0-0-0-0-0--|
B |-----------------5-5-5-5-5-5-5-5-5-5-5-5---0-0-0-0-0-0-0-0-0-0-0-0-0-0--|


Post-Chorus:

c#|------------------------------------------------------------------------|
g#|------------------------------------------------------------------------|
e |---5--5-5~--------------------------------------------------------------|
b |---5--5-5~--------5--5-5~--------0--0-0----0--0-0~----------------------|
f#|---3--3-3~--------5--5-5~--------0--0-0----0--0-0~----------------------|
B |------------------5--5-5~--------0--0-0----0--0-0~----------------------|


c#|------------------------------------------------------------------------|
g#|------------------------------------------------------------------------|
e |---5--5-5~--------------------------------------------------------------|
b |---5--5-5~--------5--5-5~--------0--0-0~--------------------------------|
f#|---3--3-3~--------5--5-5~--------0--0-0~--------------------------------|
B |------------------5--5-5~--------0--0-0~--------------------------------|


Verse 2:
c#|------------------------------------------------------------------------|
g#|------------------------------------------------------------------------|
e |------------------------------------------------------------------------|
b |-2----2----2-2-2-2-2-2-2-2--5-5-5-5-5-5-5--0-0-0-0-0-0-0----------------|
f#|-2----2----2-2-2-2-2-2-2-2--5-5-5-5-5-5-5--0-0-0-0-0-0-0----------------|
B |-2----2----2-2-2-2-2-2-2-2--5-5-5-5-5-5-5--0-0-0-0-0-0-0----------------|
              ...............  .............  .............

c#|------------------------------------------------------------------------|
g#|------------------------------------------------------------------------|
e |------------------------------------------------------------------------|
b |-2----2----2-2-2-2-2-2-2-2--5-5-5-5-5-5-5--0-0-0-0-0-0-0----------------|
f#|-2----2----2-2-2-2-2-2-2-2--5-5-5-5-5-5-5--0-0-0-0-0-0-0----------------|
B |-2----2----2-2-2-2-2-2-2-2--5-5-5-5-5-5-5--0-0-0-0-0-0-0----------------|
              ...............  .............  .............

c#|------------------------------------------------------------------------|
g#|------------------------------------------------------------------------|
e |------------------------------------------------------------------------|
b |-5----5----5-5-5-5-5-5-5-5--5-5-5-5-5-5-5--0-0-0-0-0-0-0----------------|
f#|-3----3----3-3-3-3-3-3-3-3--5-5-5-5-5-5-5--0-0-0-0-0-0-0----------------|
B |-2----2----2-2-2-2-2-2-2-2--5-5-5-5-5-5-5--0-0-0-0-0-0-0----------------|
              ...............  .............  .............

c#|------------------------------------------------------------------------|
g#|------------------------------------------------------------------------|
e |------------------------------------------------------------------------|
b |-5----5----5-5-5-5-5-5-5-5--5-5-5-5-5-5-5--0-0-0-0-0-0-0----------------|
f#|-3----3----3-3-3-3-3-3-3-3--5-5-5-5-5-5-5--0-0-0-0-0-0-0----------------|
B |-2----2----2-2-2-2-2-2-2-2--5-5-5-5-5-5-5--0-0-0-0-0-0-0----------------|
              ...............  .............  .............

c#|------------------------------------------------------------------------|
g#|------------------------------------------------------------------------|
e |------------------------------------------------------------------------|
b |-2--2-2-2-2---x-2-x-2---2--2-2-2-2---x-2-x-2----------------------------|
f#|-2--2-2-2-2---x-2-x-2---2--2-2-2-2---x-2-x-2----------------------------|
B |-2--2-2-2-2---x-2-x-2---2--2-2-2-2---x-2-x-2----------------------------|


c#|------------------------------------------------------------------------|
g#|------------------------------------------------------------------------|
e |------------------------------------------------------------------------|
b |-5--5-5-5-5---x-5-x-5---5--5-5-5-5---x-5-x-5----------------------------|
f#|-3--3-3-3-3---x-3-x-3---3--3-3-3-3---x-3-x-3----------------------------|
B |-2--2-2-2-2---x-2-x-2---2--2-2-2-2---x-2-x-2----------------------------|

Chorus 2:

c#|------------------------------------------------------------------------|
g#|------------------------------------------------------------------------|
e |-5-5-5-5-5-5-5----------------------------------------------------------|
b |-5-5-5-5-5-5-5---5-5-5-5-5-5-5-5-5-5-5-5---0-0-0-0-0-0-0-0-0-0-0-0-0-0--|
f#|-3-3-3-3-3-3-3---5-5-5-5-5-5-5-5-5-5-5-5---0-0-0-0-0-0-0-0-0-0-0-0-0-0--|
B |-----------------5-5-5-5-5-5-5-5-5-5-5-5---0-0-0-0-0-0-0-0-0-0-0-0-0-0--|


c#|------------------------------------------------------------------------|
g#|------------------------------------------------------------------------|
e |-5-5-5-5-5-5-5----------------------------------------------------------|
b |-5-5-5-5-5-5-5---5-5-5-5-5-5-5-5-5-5-5-5---0-0-0-0-0-0-0-0-0-0-0-0-0-0--|
f#|-3-3-3-3-3-3-3---5-5-5-5-5-5-5-5-5-5-5-5---0-0-0-0-0-0-0-0-0-0-0-0-0-0--|
B |-----------------5-5-5-5-5-5-5-5-5-5-5-5---0-0-0-0-0-0-0-0-0-0-0-0-0-0--|



c#|------------------------------------------------------------------------|
g#|------------------------------------------------------------------------|
e |-5-5-5-5-5-5-5----------------------------------------------------------|
b |-5-5-5-5-5-5-5---5-5-5-5-5-5-5-5-5-5-5-5---0-0-0-0-0-0-0-0-0-0-0-0-0-0--|
f#|-3-3-3-3-3-3-3---5-5-5-5-5-5-5-5-5-5-5-5---0-0-0-0-0-0-0-0-0-0-0-0-0-0--|
B |-----------------5-5-5-5-5-5-5-5-5-5-5-5---0-0-0-0-0-0-0-0-0-0-0-0-0-0--|



c#|------------------------------------------------------------------------|
g#|------------------------------------------------------------------------|
e |-5-5-5-5-5-5-5----------------------------------------------------------|
b |-5-5-5-5-5-5-5---5-5-5-5-5-5-5-5-5-5-5-5---0-0-0-0-0-0-0-0-0-0-0-0-0-0--|
f#|-3-3-3-3-3-3-3---5-5-5-5-5-5-5-5-5-5-5-5---0-0-0-0-0-0-0-0-0-0-0-0-0-0--|
B |-----------------5-5-5-5-5-5-5-5-5-5-5-5---0-0-0-0-0-0-0-0-0-0-0-0-0-0--|


Post-Chorus:

c#|------------------------------------------------------------------------|
g#|------------------------------------------------------------------------|
e |---5--5-5~--------------------------------------------------------------|
b |---5--5-5~--------5--5-5~--------0--0-0----0--0-0~----------------------|
f#|---3--3-3~--------5--5-5~--------0--0-0----0--0-0~----------------------|
B |------------------5--5-5~--------0--0-0----0--0-0~----------------------|


c#|------------------------------------------------------------------------|
g#|------------------------------------------------------------------------|
e |---5--5-5~--------------------------------------------------------------|
b |---5--5-5~--------5--5-5~--------0--0-0~--------------------------------|
f#|---3--3-3~--------5--5-5~--------0--0-0~--------------------------------|
B |------------------5--5-5~--------0--0-0~--------------------------------|


Bridge:


c#|------------------------------------------------------------------------|
g#|------------------------------------------------------------------------|
e |---5--5--5-5-5---5--5--5-5-5-5-5-5--------------------------------------|
b |---5--5--5-5-5---5--5--5-5-5-5-5-5---5-5-5-5-5-5-5-5-5--0-0-0-0-0-0-0-0-|
f#|---3--3--3-3-3---3--3--3-3-3-3-3-3---5-5-5-5-5-5-5-5-5--0-0-0-0-0-0-0-0-|
B |-------------------------------------5-5-5-5-5-5-5-5-5--0-0-0-0-0-0-0-0-|



c#|------------------------------------------------------------------------|
g#|------------------------------------------------------------------------|
e |---5--5--5-5-5---5--5--5-5-5-5-5-5--------------------------------------|
b |---5--5--5-5-5---5--5--5-5-5-5-5-5---5-5-5-5-5-5-5-5-5--0-0-0-0-0-0-0-0-|
f#|---3--3--3-3-3---3--3--3-3-3-3-3-3---5-5-5-5-5-5-5-5-5--0-0-0-0-0-0-0-0-|
B |-------------------------------------5-5-5-5-5-5-5-5-5--0-0-0-0-0-0-0-0-|



c#|------------------------------------------------------------------------|
g#|------------------------------------------------------------------------|
e |---5--5--5-5-5---5--5--5-5-5-5-5-5--------------------------------------|
b |---5--5--5-5-5---5--5--5-5-5-5-5-5---5-5-5-5-5-5-5-5-5--0-0-0-0-0-0-0-0-|
f#|---3--3--3-3-3---3--3--3-3-3-3-3-3---5-5-5-5-5-5-5-5-5--0-0-0-0-0-0-0-0-|
B |-------------------------------------5-5-5-5-5-5-5-5-5--0-0-0-0-0-0-0-0-|



c#|------------------------------------------------------------------------|
g#|------------------------------------------------------------------------|
e |---5--5--5-5-5---5--5--5-5-5-5-5-5--------------------------------------|
b |---5--5--5-5-5---5--5--5-5-5-5-5-5---5-5-5-5-5-5-5-5-5--0-0-0-0-0-0-0-0-|
f#|---3--3--3-3-3---3--3--3-3-3-3-3-3---5-5-5-5-5-5-5-5-5--0-0-0-0-0-0-0-0-|
B |-------------------------------------5-5-5-5-5-5-5-5-5--0-0-0-0-0-0-0-0-|



c#|------------------------------------------------------------------------|
g#|------------------------------------------------------------------------|
e |---------5~~~~~~--------------------------------------------------------|
b |---------5~~~~~~--------5~~~~~~~~-------------0~~~~~~~------------------|
f#|---------3~~~~~~--------5~~~~~~~~-------------0~~~~~~~------------------|
B |------------------------5~~~~~~~~-------------0~~~~~~~------------------|


c#|------------------------------------------------------------------------|
g#|------------------------------------------------------------------------|
e |---5--5-5~--------------------------------------------------------------|
b |---5--5-5~--------5--5-5~--------0--0-0----0--0-0~----------------------|
f#|---3--3-3~--------5--5-5~--------0--0-0----0--0-0~----------------------|
B |------------------5--5-5~--------0--0-0----0--0-0~----------------------|


Chorus 3:

c#|------------------------------------------------------------------------|
g#|------------------------------------------------------------------------|
e |-5-5-5-5-5-5-5----------------------------------------------------------|
b |-5-5-5-5-5-5-5---5-5-5-5-5-5-5-5-5-5-5-5---0-0-0-0-0-0-0-0-0-0-0-0-0-0--|
f#|-3-3-3-3-3-3-3---5-5-5-5-5-5-5-5-5-5-5-5---0-0-0-0-0-0-0-0-0-0-0-0-0-0--|
B |-----------------5-5-5-5-5-5-5-5-5-5-5-5---0-0-0-0-0-0-0-0-0-0-0-0-0-0--|


c#|------------------------------------------------------------------------|
g#|------------------------------------------------------------------------|
e |-5-5-5-5-5-5-5----------------------------------------------------------|
b |-5-5-5-5-5-5-5---5-5-5-5-5-5-5-5-5-5-5-5---0-0-0-0-0-0-0-0-0-0-0-0-0-0--|
f#|-3-3-3-3-3-3-3---5-5-5-5-5-5-5-5-5-5-5-5---0-0-0-0-0-0-0-0-0-0-0-0-0-0--|
B |-----------------5-5-5-5-5-5-5-5-5-5-5-5---0-0-0-0-0-0-0-0-0-0-0-0-0-0--|



c#|------------------------------------------------------------------------|
g#|------------------------------------------------------------------------|
e |-5-5-5-5-5-5-5----------------------------------------------------------|
b |-5-5-5-5-5-5-5---5-5-5-5-5-5-5-5-5-5-5-5---0-0-0-0-0-0-0-0-0-0-0-0-0-0--|
f#|-3-3-3-3-3-3-3---5-5-5-5-5-5-5-5-5-5-5-5---0-0-0-0-0-0-0-0-0-0-0-0-0-0--|
B |-----------------5-5-5-5-5-5-5-5-5-5-5-5---0-0-0-0-0-0-0-0-0-0-0-0-0-0--|



c#|------------------------------------------------------------------------|
g#|------------------------------------------------------------------------|
e |-5-5-5-5-5-5-5----------------------------------------------------------|
b |-5-5-5-5-5-5-5---5-5-5-5-5-5-5-5-5-5-5-5---0-0-0-0-0-0-0-0-0-0-0-0-0-0--|
f#|-3-3-3-3-3-3-3---5-5-5-5-5-5-5-5-5-5-5-5---0-0-0-0-0-0-0-0-0-0-0-0-0-0--|
B |-----------------5-5-5-5-5-5-5-5-5-5-5-5---0-0-0-0-0-0-0-0-0-0-0-0-0-0--|


Post-Chorus:

c#|------------------------------------------------------------------------|
g#|------------------------------------------------------------------------|
e |---5--5-5~--------------------------------------------------------------|
b |---5--5-5~--------5--5-5~--------0--0-0----0--0-0~----------------------|
f#|---3--3-3~--------5--5-5~--------0--0-0----0--0-0~----------------------|
B |------------------5--5-5~--------0--0-0----0--0-0~----------------------|


c#|------------------------------------------------------------------------|
g#|------------------------------------------------------------------------|
e |---5--5-5~--------------------------------------------------------------|
b |---5--5-5~--------5--5-5~--------0--0-0~--------------------------------|
f#|---3--3-3~--------5--5-5~--------0--0-0~--------------------------------|
B |------------------5--5-5~--------0--0-0~--------------------------------|


c#|-----|
g#|-----|
e |-----|
b |--5~-|
f#|--3~-|
B |--2~-|


RATE AND COMMENT!!!!





Comments


Popular A Day To Remember tabs & chords
All I Want 4 Bass Tabs
Im Made Of Wax Larry What Are You Made Of 3 Bass Tabs
Monument 2 Bass Tabs
Nj Legion Iced Tea 2 Bass Tabs
Plot To Bomb The Panhandle 2 Bass Tabs
All Signs Point To Launderdale 1 Chords
Better Off This Way Chords
I Remember Chords
I Heard The Softest Thing Ever Tabs
Mr Highways Thinking About The End Tabs


Song lyrics



↑ Back to top | Tablatures and chords are parodies/interpretations of the original songs. You may use it for private study, scholarship, research or language learning purposes only
© 2014 AZChords.com Contact us | Privacy policy | DMCA | Add/correct tabs | Request tabs | Top 50 tabs