» » »

A Day To Remember, Another Song About The Weekend Bass tabs (ver.2)

Artists:  A B C D E F G H I J K L M N O P Q R S T U V W X Y Z # 

Another Song About The Weekend Bass tabs (ver.2)

A Day To Remember Tabs
Rating:
0/5 (0 votes)
Another Song About The Weekend lessons Tabs too difficult? Try these video lessons and learn fast
                so i could never find any tabs for this song and thought to myself "oh wait! ill
just tab it myself!" enjoy ;) by the way this is my first tab lol

intro (no bass)
(0:03)
|------------------------------------------------------------------------|
|------------------------------------------------------------------------|
|------------------------------------------------------------------------|
|5-55555-5-5-5-5-55555-5-5-5-5-55555-5-5-5-7-5-4-2-----------------------|

(just bass)
(0:08)
|-----------------------------------------------------------------|
|-----------------------------------------------------------------|
|-----------------------------------------------------------------|
|0-00-0-0-00-0-0-00-0-(4x)-7-77-7-7-77-7-77-7-77-7-7--------------|

verse
(0:20)
|---------------------------------------------------------------------------------------|
|---------------------------------------------------------------------------------------|
|---------------------------------------------------------------------------------------|
|0-00-0-0-00-0-0-00-0-5-55-5-5-55-5-5-55-5-0-00-0-0-00-0-0-00-0-7-77-7-7-77-7-7-77-7----|

|---------------------------------------------------------------------|
|---------------------------------------------------------------------|
|---------------------------------------------------------------------|
|2-22-2-2-22-2-2-22-2-5-55-5-1-11-1-11-1-11-5-55-5--5~---4~---5~---7~-|

chorus YAY!
(0:43)                                                                                   
                                                 (2x)
|-----------------------------------------------------------------|
|-----------------------------------------------------------------|
|-----------------------------------------------------------------|
|000000000000-555555555555-99999999-77777777-5555555555555555-----|

(1:07)
|----------------------------------|
|----------------------------------|
|----------------------------------|
|0-00000-0-0-7-5-4-2---------------|

verse 2 (a bit different strum pattern)
(1:10)
|-------------------------------------------------------------------------------|
|-------------------------------------------------------------------------------|
|-------------------------------------------------------------------------------|
|00-0-00-0-00-0-00-0-55-5-55-5-55-5-55-5-00-0-00-0-00-0-00-0-77-7-77-7-77-7-77--|

|----------------------------------------------------------------------------------------|
|----------------------------------------------------------------------------------------|
|----------------------------------------------------------------------------------------|
|2-22-2-2-22-2-2-22-2-5-55-5-1-11-1-11-1-11-5-55-5--55555555-44444444-55555555-77777777--|

|--------------------------------------------------------------------|
|--------------------------------------------------------------------|
|--------------------------------------------------------------------|
|2-22-2-2-22-2-2-22-2-5-55-5-1-11-1-11-1-11-5-55-5--5~---4~---5~---7~|

chorus again = YAY!
(1:46)                                                                                   
                                                 (2x)
|-----------------------------------------------------------------|
|-----------------------------------------------------------------|
|-----------------------------------------------------------------|
|000000000000-555555555555-99999999-77777777-5555555555555555-----|


|--------------------------9h11p9-------|
|-------------------------------------12|
|---------------------------------------|
|0~-------------------------------------|

breakdown!!!!!! (strum pattern is a bit tricky but just listen to the song and 
you'll get it no problem)
(2:12)
|-----------------------------------------------------------------|
|-----------------------------------------------------------------|
|-----------------------------------------------------------------|
|0000000000000000000000000-555555555555555555555555---------------|

|-----------------------------------------------------------------|
|-----------------------------------------------------------------|
|-----------------------------------------------------------------|
|0-000-0---0-0-0-0-000-0---0-0-0-5-555-5---5-5-5-5-555-5-----5-5-5|

(just bass again which means yay!)
(2:36)
|-----------------------------------------------------------------|
|-----------------------------------------------------------------|
|-----------------------------------------------------------------|
|0000000000000000000000000000-99999999-7777-0000-55555555555555---|

|-----------------------------------------------------------------|
|-----------------------------------------------------------------|
|-----------------------------------------------------------------|
|000000000000-555555555555-99999999-77777777-5555555555555555-----|

final chorus
(2:59)                                                                                   
                                                 (2x)
|-----------------------------------------------------------------|
|-----------------------------------------------------------------|
|-----------------------------------------------------------------|
|000000000000-555555555555-99999999-77777777-5555555555555555-----|

(just guitar for a couple seconds then)
|-------------------------------------------|
|-------------------------------------------|
|-------------------------------------------|
|0-0000-0-0-0-7-5-4-2-----0~~~~~~~~~~~~~~~~-|


well thats it hope you enjoy playing it as much as i do!
            

comments powered by Disqus
↑ Back to top | A Day To Remember Bass for Another Song About The Weekend. Lyrics for acoustic guitar and electric guitar. Tablatures and chords are parodies/interpretations of the original songs. You may use it for private study, scholarship, research or language learning purposes only