» » »

The One For Me Bass tabs (ver.1)

Artists:  A B C D E F G H I J K L M N O P Q R S T U V W X Y Z # 

The One For Me Bass tabs (ver.1)

A Day Late
Rating:
0/5 (0 votes)

Hard to play? Try these video lessons and learn fast.
                chris dunne 
please rate my tabs and enjoy !!

Intro/Verse 
G|---------------------------------------------------------------------------| 
D|---------------------------------------------------------------------------| 
A|-3-3-3-3-3-3-3-3-----------------0-0-0-0-0-0-0-0---------------------------| 
E|-----------------1-1-1-1-1-1-1-1-----------------3-3-3-3-3-3-3-3-----------| 

Interlude 
G|---------------------------------------------------------------------------| 
D|---------------------------------3-3-3-3-3-3-3-3-5-5-5-5-5-5-5-5-----------| 
A|-3-3-3-3-3-3-3-3-5-5-5-5-5-5-5-5-------------------------------------------| 
E|---------------------------------------------------------------------------| 

Chorus 
G|---------------------------------------------------------------------------| 
D|---------------------------------------------------------------------------| 
A|-3-3-3-3-3-3-3-3-----------------0-0-0-0-0-0-0-0---------------------------| 
E|-----------------3-3-3-3-3-3-3-3-----------------1-1-1-1-1-1-1-1-----------|
            
Hard to play? Try these video lessons and learn fast. | Correct




comments powered by Disqus
↑ Back to top | Tablatures and chords are parodies/interpretations of the original songs. You may use it for private study, scholarship, research or language learning purposes only