» » »

She Said Bass tabs (ver.1)

Artists:  A B C D E F G H I J K L M N O P Q R S T U V W X Y Z # 

She Said Bass tabs (ver.1)

A Day Late
Rating:
0/5 (0 votes)

Hard to play? Try these video lessons and learn fast.
                chris dunne 
please rate my tabs

Intro/Verse 
G|---------------------------------------------------------------------------| 
D|-3-3-3-3-3-3-3-3-----------------------------------------------------------| 
A|-----------------3-3-3-3-3-3-3-3-5-5-5-5-5-5-5-5-1-1-1-1-1-1-1-1-----------| 
E|---------------------------------------------------------------------------| 

Pre-chorus/Chorus 
G|---------------------------------------------------------------------------| 
D|---------------------------------------------------------------------------| 
A|-----------------3-3-3-3-3-3-3-3-5-5-5-5-5-5-5-5-1-1-1-1-1-1-1-1-----------| 
E|-1-1-1-1-1-1-1-1-----------------------------------------------------------|
            
Hard to play? Try these video lessons and learn fast. | Correct




comments powered by Disqus
↑ Back to top | Tablatures and chords are parodies/interpretations of the original songs. You may use it for private study, scholarship, research or language learning purposes only