» » »

Adams Ryan, Winding Wheel Chords (ver.1)

Artists:  A B C D E F G H I J K L M N O P Q R S T U V W X Y Z # 

Winding Wheel Chords (ver.1)

Adams Ryan Tabs
Rating:
0/5 (0 votes)
Winding Wheel lessons Tabs too difficult? Try these video lessons and learn fast
                Ryan Adams
Capo on 1st fret

When he plays the G chord, he often does that little
Keith Richards thing and hammers on to a C chord in
this shape:
e--3---|
B--1---|
G--0---|
D--2---|
A--x---|
E--3---|
and then pulls back off.

Also, the C chord in the verses moves like this:

e-0-----------0-------------------------|
B-1-----1-------1---1-------------1-----|
G-0---0---0-------0---0---------0---0---|
D-0h2-------2-----------2---0h2-------2-|
A-3-----------------------3-------------|
E-x-------------------------------------|

e-0-------------------3-
B---1-----------1-----0-
G-----0-------0-------0-
D-------2-0h2-----2p0-0-
A---------------------2-
E---------------------3-

except with a more strummed arppegio
(i.e. it's closer to just strumming, but you accent the notes
written)

C
Well ...
	  G
... see her
C
Precious ...
		  G
... around without their clothes 

Am
So buy ...
G/B
...
C				   D7
For ...

   C	    G	   C G/B Am D/F# G
Or better ...

verse

chorus
C G/B Am D/F# G
Be ...

solo:
Am - G x2

verse 

chorus
C G/B Am D/F# G
Be ...

C     D	      G
Be My ...

Worked out by:
John Seekins
            
Submit corrections

comments powered by Disqus
↑ Back to top | Adams Ryan Chords for Winding Wheel. Lyrics for acoustic guitar and electric guitar. Tablatures and chords are parodies/interpretations of the original songs. You may use it for private study, scholarship, research or language learning purposes only