» » »

Adams Ryan, I See Monsters Tabs (ver.1)

Artists:  A B C D E F G H I J K L M N O P Q R S T U V W X Y Z # 

I See Monsters Tabs (ver.1)

Adams Ryan Tabs
 Rating:
4/5 (4 votes)
I See Monsters lessons Tabs too difficult? Try these video lessons and learn fast
                Ryan Adams
Love is Hell (Part 2)

This is my first shot at a tab so it's sort of approximate and a few parts are simplified
listening to the song. It's tough, good luck! E-mail me with any feedback/corrections.

Intro/Verse

 "baby i know you cannot...but i love you now."
|------------------------4-------------------3--------------
|-----------6-----------------------------------------------
|--------3----5p3------3---3-3-----3-3-----3---3-3-----3-3--
|-------------5---------------------------------------------
|----3h5----------------------------------------------------
|-1--1--------------4----------4-4------3----------3-3------

 ---------------------:
 ---------------------:
 ------3-3------5-5---:
 ------4-4------6-6---:
 ---------------------:
 --2-2------4-4-------:


Pre-Chorus
 
 "oh, people screamin', people screamin'...my baby she's sleepin'."
|------------------------------------------------------------------------:
|---3---3---3---3---3---3---3---3----------------------------------------:
|---3---3---3---3---3---3---3---3-------3----6----3----------3----6----3-:
|-----------------------------------3h5---5-----5--------3h6---6--6--6---:
|------------------------------------------------------------------------:
|-6------5-------4-------3-------2--------------------3------------------:

 "ooooooooo-ooooh..."
|---------2---2----------4----
|---2---2---2---2-------------
|-----3---------------5----5--
|-----------------------------
|-4---------------------------
|------------------4----------


Chorus

 "when she calls, i know that she's alone."
|---------------------------------------------------
|--------------2--------2---------2--------2--------
|-----------------1--------1---------1--------1-----
|---------------------------------------------------
|-1----3----4---------4------------------4----------
|-------------------------------2-----------------2-

"makes me want it harder...be a little stronger. still i see..."
|-----------------------1-----1--------1----------1--------1--------1------1------1------1----
|----2-2-----2-2-----------1--------------1----------2--------2-------2------2------2------2--
|--------------------2--------------2-----------3---------3--------3------3------3------3-----
|---------------------------------------------------------------------------------------------
|---------4-----------------------------------1-----------------------------------------------
|-2(cont.)--------1--------------1----------------------4---------3------3------3------3------

 "...monsters. still i see monsters."
 ---1------1------1------1----------1-------------1--------1---1---1-----|
 -----2------2------2------2----------1---------1---------------------1--|
 --3------3------3------3---------2-----2-----2----------2---2---2-------|
 ------------------------------------------------------------------------|
 ------------------------------------------------------------------------|
 -2------2------2------2-------1-----------1---------1-------------------|

Outro

|-----------1----------------------:            ---|
|---2p1h2------2----2p1h2---2---2--:            ---|
|-----------------------------3----:            ---|
|----------------------------------: x4, end on ---|
|-1--------------------------------:            -1-|
|--------4-------3-------2---------:            ---|

That's it, listen to the track for the order of the verses and slight variations, etc. Enjoy!
            
Submit corrections

comments powered by Disqus
↑ Back to top | Adams Ryan Tabs for I See Monsters. Lyrics for acoustic guitar and electric guitar. Tablatures and chords are parodies/interpretations of the original songs. You may use it for private study, scholarship, research or language learning purposes only