» » »

Adams Bryan, Heaven (Solo Ver ) Tabs (ver.1)

Artists:  A B C D E F G H I J K L M N O P Q R S T U V W X Y Z # 

Heaven (Solo Ver ) Tabs (ver.1)

Adams Bryan Tabs
Rating:
0/5 (0 votes)
Heaven (Solo Ver ) lessons Tabs too difficult? Try these video lessons and learn fast
                "(2)
This version is better than the one i sent before... here it goes..

Ill be standing there by you...

e|----------------------------------------------------------------|
B|------------------------------------------------10--8-----------|
G|--9-12-12^14-12^14r----12^14--12--9--12--7-7^9r-------7^9r-5----|
D|------------------------------------------------------------7~--|
A|----------------------------------------------------------------|
E|----------------------------------------------------------------|

e|---------5---------------8^10-8-7-------------------------------|
B|------5------8^10^8r--5-----------8~----------------------------|
G|--7^9(9)(9)-----------------------------------------------------|
D|----------------------------------------------------------------|
A|----------------------------------------------------------------|
E|----------------------------------------------------------------|

the whole song has short easy solos that you should learn them as you hear it....

the end solo goes like this.....
And baby youre all that i want
when youre lying here by my arms
im finding it hart to believe
were in heaven... 

the end solo goes like this.....
The tempo changes, so here it a couple of times to get the hang of it

e|---8~---------8--8^10r-8^10r--8h10---------------/15--15^17^15r-----------
B|---------8h10----------------------10~--10-12-13--------------------------
G|--------------------------------------------------------------------------
D|--------------------------------------------------------------------------
A|--------------------------------------------------------------------------
E|--------------------------------------------------------------------------

e|--15^17(17)(17)^15r-----------------------15^17^15r---15^17(17)^15r-------
B|---------------------17~--15-17-/18-17-------------17-----------------17--
G|----------------------17-------------/17~---------------------------------
D|--------------------------------------------------------------------------
A|--------------------------------------------------------------------------
E|--------------------------------------------------------------------------

e|-/17-15--17--/17-15-------------------------------------------------------
B|-----------17------17-15--------------------------------------------------
G|------------------------17-16-14~---12^14r-12^14~r-12---------------------
D|----------------------------------14-----------------15-14-12-14----------
A|----------------------------------------------------------------15--17----
E|--------------------------------------------------------------------------

e|---------------|
B|---------------|
G|-----17-16-14~-|
D|---14----------|
A|-17------------|
E|---------------|

After this it is really low and the song ends...
well here are the main solos
enjoy
any suggestions

Daniel Alanis
"            
Submit corrections

comments powered by Disqus
↑ Back to top | Adams Bryan Tabs for Heaven (Solo Ver ). Lyrics for acoustic guitar and electric guitar. Tablatures and chords are parodies/interpretations of the original songs. You may use it for private study, scholarship, research or language learning purposes only