» » »

Adams Bryan, Heaven Bass tabs (ver.1)

Artists:  A B C D E F G H I J K L M N O P Q R S T U V W X Y Z # 

Heaven Bass tabs (ver.1)

Adams Bryan Tabs
Rating:
0/5 (0 votes)
Heaven lessons Tabs too difficult? Try these video lessons and learn fast
                BRYAN ADAMS - "Heaven" - Bass Tab

Common Time(4/4)
Standard Tuning(EADG)

INTRO:
|-----------|---------|---------|---------|
|-----------|---------|---------|---------|
|-3-----3---|---------|---------|---------|
|---------3-|-5-------|-3-------|-1-------|
  1 2 3 4 &   1 2 3 4   1 2 3 4   1 2 3 4

PRE-VERSE:
|-----------|---------|---------|---------|---------|
|-----------|---------|---------|---------|---------|
|-3-----3---|---------|---------|---------|---------|
|---------3-|-5-------|-3-----0-|-1-------|---------|
  1 2 3 4 &   1 2 3 4   1 2 3 4   1 2 3 4   1 2 3 4

VERSE 1:
|---------|---------|---------|-----------|---------|---------|
|---------|---------|---------|-----------|---------|---------|
|-3-------|---------|---------|---------3-|-5-------|---------|
|---------|-5-------|-3-----3-|-3-----3---|---------|-5-------|
  1 2 3 4   1 2 3 4   1 2 3 4   1 2 3 4 &   1 2 3 4   1 2 3 4

|---------|---------|-----------|---------|-----------|---------|
|---------|---------|-----------|---------|-----------|---------|
|---------|---------|-3-----3---|---------|---------3-|-5-------|
|-6-----5-|-3-------|---------3-|-3-----3-|-3---3-5---|---------|
  1 2 3 4   1 2 3 4   1 2 3 4 &   1 2 3 4   1 2 3 & 4   1 2 3 4

|---------|---------|---------|---------|---------|
|---------|---------|---------|---------|-5-------|
|---------|---------|-------5-|---------|---------|
|-5-------|-6-----6-|-5-------|-3-------|---------|
  1 2 3 4   1 2 3 4   1 2 3 4   1 2 3 4   1 2 3 4

1ST CHORUS:
|---------|-----------|---------|---------|---------|---------|
|---------|-----------|---------|---------|---------|---------|
|---------|-0-----0-1-|-3-------|---------|---------|---------|
|-1---3---|-----------|-------0-|-1-------|-1---3---|-5-------|
  1 2 3 4   1 2 3 4 &   1 2 3 4   1 2 3 4   1 2 3 4   1 2 3 4

|-----------|---------|---------|-----------|-----------|---------|
|-----------|-5-------|---------|-----------|-----------|---------|
|---------5-|---------|---------|-0-----0-1-|-3-------3-|---------|
|-3-----5---|---------|-1---3---|-----------|-------0---|-1-------|
  1 2 3 4 &   1 2 3 4   1 2 3 4   1 2 3 4 &   1 2 3 4 &   1 2 3 4

|---------|---------|----------|---------|
|---------|---------|----------|---------|
|---------|---------|----------|---------|
|-1---3---|-5-----3/|-15-------|---------|
  1 2 3 4   1 2 3 4   1  2 3 4   1 2 3 4

PRE-VERSE(x1)

VERSE 2:
|-----------|---------|---------|-----------|---------|---------|
|-----------|---------|---------|-----------|---------|---------|
|-3-----3---|---------|---------|---------3-|-5-------|---------|
|---------3-|-5-------|-3-----3-|-3-----3---|---------|-5-------|
  1 2 3 4 &   1 2 3 4   1 2 3 4   1 2 3 4 &   1 2 3 4   1 2 3 4

|---------|---------|---------|---------|----------|---------|
|---------|-----5---|---------|---------|----------|---------|
|---------|---------|-3-------|---------|--------3-|-5---7/--|
|-6-----5-|-3-------|-------3-|-3-----3-|-3----3---|---------|
  1 2 3 4   1 2 3 4   1 2 3 4   1 2 3 4   1 2 3 4 &  1 2 3 4

|----------|-----------|----------|-----------|---------|
|----------|-----------|----------|-----------|---------|
|-12-------|-13-----13-|-12-------|-10---10/5-|---------|
|----------|-----------|----------|-----------|-3-3-----|
  1  2 3 4   1  2 3 4    1  2 3 4   1  2 3  4   1 2 3 4

1ST CHORUS:
|---------|-----------|-----------|---------|---------|-----------|
|---------|-----------|-----------|---------|---------|-----------|
|---------|-0-----0-1-|-3---------|---------|---------|---------5-|
|-1---3---|-----------|-------0-0-|-1-------|-1---3---|-5-----5---|
  1 2 3 4   1 2 3 4 &   1 2 3 4 &   1 2 3 4   1 2 3 4   1 2 3 4 &

|---------|---------|---------|-----------|-----------|---------|
|-5-------|-5-------|---------|-----------|-------0-2-|-3-------|
|---------|---------|---------|-0-----0-1-|-3---------|---------|
|---------|---------|-1---3---|-----------|-----------|---------|
  1 2 3 4   1 2 3 4   1 2 3 4   1 2 3 4 &   1 2 3 4 &   1 2 3 4

|---------|---------|-----------|-----------|-----------|
|---------|-------7-|-5---5-5-5-|-5-5---5-5-|-5-5---5-5-|
|---------|---------|-----------|-----------|-----------|
|-1---3---|-5-------|-----------|-----------|-----------|
  1 2 3 4   1 2 3 4   1 2 3 4 &   1 2 3 4 &   1 2 3 4 &

|-----------|
|-5-5-------|
|-----3-2-3-|
|-----------|
  1 2 3 4 &

MIDDLE-EIGHT:
|-----------|---------|---------|---------|-----------|---------|
|-----------|---------|---------|---------|-----------|---------|
|-5-------5-|-5---7---|-8-------|-8/3-----|-0---0---0-|-0-----0-|
|-----------|---------|---------|-----3---|-----------|---------|
  1 2 3 4 &   1 2 3 4   1 2 3 4   1 2 3 4   1 2 3 4 &   1 2 3 4

|---------|-----------|-----------|---------|---------|---------|
|---------|-----------|-----------|---------|-------7-|-5---3---|
|-2-----2-|-2---2-3---|-5-------5-|-5/2-----|---------|---------|
|---------|-----------|-----------|-----0---|-1-------|---------|
  1 2 3 4   1 2 3 & 4   1 2 3 4 &   1 2 3 4   1 2 3 4   1 2 3 4

|-----------|---------|-----------|-------------|
|-----------|---------|-----------|-------------|
|-3-----3-3-|-3-------|-----------|-----3-1-0---|
|-----------|-----0-1-|-3-3---3-3-|-3-3-------3-|
  1 2 3 4 &   1 2 3 4   1 2 3 4 &   1 2 3 & 4 &

SOLO:
|---------|-----------|-----------|---------|---------|-----------|
|---------|-----------|-----------|---------|---------|-----------|
|---------|-0-----0-1-|-3-----3---|---------|---------|-------5-3-|
|-1---3---|-----------|---------3-|-1-------|-1---3---|-5---------|
  1 2 3 4   1 2 3 4 &   1 2 3 4 &   1 2 3 4   1 2 3 4   1 2 3 4 &

|---------|---------|
|---------|-5-------|
|---------|---------|
|-3-------|---------|
  1 2 3 4   1 2 3 4  

END:
|---------|-----------|-----------|---------|---------|---------|
|---------|-----------|-----------|---------|---------|---------|
|---------|-0-----0-1-|-3-----3---|---------|---------|-------5-|
|-1---3---|-----------|---------0-|-1-------|-1---3---|-5-------|
  1 2 3 4   1 2 3 4 &   1 2 3 4 &   1 2 3 4   1 2 3 4   1 2 3 4 

|-----------|-------------|---------|-----------|-----------|
|-5---3---5-|-----5-3-----|---------|-----------|-----------|
|-----------|---------5---|---------|-0-----0-1-|-3-----3-5-|
|-----------|-3-3-------3-|-1---3---|-----------|-----------|
  1 2 3 4 &   1 2 3 & 4 &  1 2 3 4   1 2 3 4 &    1 2 3 4 &

|---------|---------|---------|-----------|-----------|---------|
|-3-------|---------|---------|-----------|-----------|---------|
|---------|---------|---------|-----------|-----------|---------|
|---------|-1---3---|-5-----3/|-15---13---|-12---10---|-1---3---|
  1 2 3 4   1 2 3 4   1 2 3 4   1  2 3  4   1  2 3  4   1 2 3 4

|-----------|---------|---------|---------|-----------|-----------|
|-----------|---------|---------|---------|-----------|-----------|
|-0-----0-1-|-3-------|---------|---------|-----------|---------5-|
|-----------|-------0-|-1-------|-1---3---|-5-----5-0-|-3---------|
  1 2 3 4 &   1 2 3 4   1 2 3 4   1 2 3 4   1 2 3 4 &   1 2 3 4 &

|-----------------|---------|-----------|---------|---------|
|-5-5-5-5-5-5-5-5-|---------|-----------|---------|---------|
|-----------------|---------|-0-----0-1-|-3-------|---------|
|-----------------|-1---3---|-----------|-------0-|-1-------|
  1 & 2 & 3 & 4 &   1 2 3 4   1 2 3 4 &   1 2 3 4   1 2 3 4

|---------|-----------|---------|
|---------|-----------|-5-------| 
|---------|-0-------5-|---------| (fade-out)
|-1---3---|-----------|---------|
  1 2 3 4   1 2 3 4 &   1 2 3 4
            

comments powered by Disqus
↑ Back to top | Adams Bryan Bass for Heaven. Lyrics for acoustic guitar and electric guitar. Tablatures and chords are parodies/interpretations of the original songs. You may use it for private study, scholarship, research or language learning purposes only