» » »

Adams Bryan, Cmon Cmon Cmon Bass tabs (ver.1)

Artists:  A B C D E F G H I J K L M N O P Q R S T U V W X Y Z # 

Cmon Cmon Cmon Bass tabs (ver.1)

Adams Bryan Tabs
 Rating:
4/5 (4 votes)
Cmon Cmon Cmon lessons Tabs too difficult? Try these video lessons and learn fast
1
                
Intro: first just the guitar, then:

g:|-------|-----------------------|------------------------|------------------------|
d:|-------|-----------------------|------------------------|------------------------|
a:|--10/--|--2h4--2h4--2h4--2h4---|--2h4--2h4--2h4--2h4--2-|-0--0-0-0-0-------------|
e:|-------|-----------------------|------------------------|-------------0--0-0-0-0-|

Verse:
|-----------------------|------------------------|-------------------------------|
|-----------------------|------------------------|-------------------------------|
|--2h4--2h4--2h4--2h4---|--2h4--2h4--2h4--2h4--2-|-0--0-0-0-0------------------2-|
|-----------------------|------------------------|-------------0--0-0-0-0--0h4---|

   C`mon c`mon c`mon.......................

|-----------------------|------------------------|------------------------|
|-----------------------|------------------------|------------------------|
|--2h4--2h4--2h4--2h4---|--2h4--2h4--2h4--2h4--2-|-0--0-0-0-0-------------|
|-----------------------|------------------------|-------------0--0-0/4-4-|

Chorus:

|-------------------|-------------------|-------------------|------------------|
|-------------------|-------------------|-------------------|------------------|
|-------------------|--2-2-2-2-2-2-2-2--|-------------------|-0-0-0-0-0-0-0-0--|
|--0-0-0-0-0-0-0-0--|-------------------|--2-2-2-2-2-2-2-4--|------------------|

         The night is alive............

|-------------------|-------------------|-------------------|-------------------------|
|-------------------|-------------------|-------------------|-------------------------|
|-------------------|--2-2-2-2-2-2-2-2--|-------------------|-0--0--0-0-0----4--2-0---|
|--0-0-0-0-0-0-0-0--|-------------------|--2-2-2-2-2-2-2h4--|-------------------------|

Verse:

Chorus:

Bridge:

|-----------|-----------|------------------------|
|-----------|-----------|------------------------|
|-----------|-----------|------------------------|
|--9--7--6--|--9--7--6--|--9h11h9h7--h9h7h6--6/--|

           C`mon c`mon c`mon.........

Preverse:
|-------------------|-----------------|------------------|-----------------|
|-------------------|-----------------|------------------|-----------------|
|--0-0-0-0-0-0-0-0--|--0-0-0-0-0-0-2--|------------------|--------1-1-3-3--|
|-------------------|-----------------|-4-4-4-4-4-4-4-4--|--4-4-4----------|

NC part, then

Last part:
|-----------------------|------------------------|-------------------------|
|-----------------------|------------------------|-------------------------|
|--3h5--3h5--3h5--3h5---|--3h5--3h5--3h5--3h5--3-|-1-1--1-1-1--------------|
|-----------------------|------------------------|-------------1-1--1-1-1--|

|-----------------------|------------------------|--------------------------|
|-----------------------|------------------------|--------------------------|
|--3h5--3h5--3h5--3h5---|--3h5--3h5--3h5--3h5--3-|-1-1--1-1-1---------------|
|-----------------------|------------------------|-------------1-1--1-3-1-0-|

|-------------------|-------------------|-------------------|------------------|
|-------------------|-------------------|-------------------|------------------|
|-------------------|-------------------|-------------------|-1-1-1-1-1--1--5--|
|--0-0-0-0-0-0-0-0--|--6-6-6-6-6-6--9/--|--0-0-0-0-0-0-0-0--|------------------|

|-----------------------|------------------------|---------------------|
|-----------------------|------------------------|---------------------|
|--3h5--3h5--3h5--3h5---|--3h5--3h5--3h5--3h5--3-|-1-1-3-3-5-5---------|
|-----------------------|------------------------|-------------3-3--5--|

end. :)

Thats about it, any comments & corrections welcome
Have fun.
            
Submit corrections

comments powered by Disqus
↑ Back to top | Adams Bryan Bass for Cmon Cmon Cmon. Lyrics for acoustic guitar and electric guitar. 1 Tablatures and chords are parodies/interpretations of the original songs. You may use it for private study, scholarship, research or language learning purposes only