» » »

Adams Bryan, Cant Stop This Thing We Started Tabs (ver.1)

Artists:  A B C D E F G H I J K L M N O P Q R S T U V W X Y Z # 

Cant Stop This Thing We Started Tabs (ver.1)

Adams Bryan Tabs
Rating:
0/5 (0 votes)
Cant Stop This Thing We Started lessons Tabs too difficult? Try these video lessons and learn fast
                intro:

e------8-----8----8----8----8----8----8----8------
b--------11---11---11---11---11---11---11---11----
g----------8----8----8----8----8----8----8----8---
d-------------------------------------------------
a-------------------------------------------------
e-------------------------------------------------


fig 1:
								
e----------8--------------8--------------8--------------8--------
b-----11------11-----11-------11----11-------11----11-------11---
g---8----8---------8----8---------8----8---------8----8----------
d----------------------------------------------------------------
a----------------------------------------------------------------
e----------------------------------------------------------------



e----------6--------------6--------------6--------------6--------
b-----9--------9-----9--------9-----9--------9-----9--------9----
g---6---6----------6---6----------6---6----------6---6-----------
d----------------------------------------------------------------
a----------------------------------------------------------------
e----------------------------------------------------------------

end of fig 1.

Verse 1:

(play A for the first for lines) 

You might stop a hurricane
Might even stop the drivin' rain                            
You might have a dozen other guys                                          
But if you wanna stop me baby - don't even try  *******
           D    G D E
I'm goin' one way - your way
E6    E        D         G      D       E
It's such a strong way - let's make it our way, now baby


******* = play the fig 1 twice.

Chorus:
D                  E               F#m
I Can't stop this thing we started
           D         A
You gotta know it's right
D                 E                 F#m  D  A
Can't stop this course we've plotted... yeah
D                 E              F#m
This thing called love we got it
                   D     A
No place for the brokenhearted
D               E                         D
Can't stop this thing we started****  no way
G    D     E
I'm goin' your way!

**** = play fig 1 once.


Verse 2:(same as before)

You might stop the world spinnin' round
Might even walk on holy ground
I ain't Superman and I can't fly
But if you wanna stop me baby ******* don't even try
I'm goin' one way - your way
It's such a strong way - let's make it our way, now baby

******* = play fig 1 twice


Chorus:(same as before)

I Can't stop this thing we started
You gotta know it's right
Can't stop this course we've plotted, yeah!
This thing called love we got it
No place for the brokenhearted
Can't stop this thing we started**** no way
I'm goin' your way (that's where I'm goin')

**** = play fig 1 once.

Bridge:

Bb                  F
Ooh - why take it slow
          Bb
I gotta know 
       A
'Cause nothing can stop this thing that we got, yeah


solo:


e-----------------------------------------13---------------------------------
b--------11----11---11---11-13---11----13^----r13--11----13p11--11----11--11-
g--11/12---12----------------------------------------------------------------
d----------------------------------------------------------------------------
a----------------------------------------------------------------------------
e----------------------------------------------------------------------------


e-----------------------------------13~~~~~~---13-----15~~~~~~~~~------------
b--------11-11-11----13---10----13--------------------------------------etc--
g--11/12---------------------------------------------------------------------
d----------------------------------------------------------------------------
a----------------------------------------------------------------------------
e----------------------------------------------------------------------------





Ending:

D                 E                F#m
I Can't stop this thing we started
            D         A
You gotta know it's right
D               E                   F#m   D  A
Can't stop this course we've plotted, yeah!
Bb                C              
This thing called love we got it
F                        A
Ain't no place for the brokenhearted
Dm              E
I can't stop it! Can't stop it!



(repeat the chorus and fafe out.)



key:

^  = bend
/  = slide
~~ = vibrato
p  = pull off or pick off or pluck off
r  = release bend


Note : 
  
  This is my first effort to tab a song. am not sure whether this 
tab is perfect(am sure it wont b). but its worth giving a try. if theres any suggestions,
corrections, comments or requests for any other bryan adams tabs mail 


have a gr8 time. enjoy.
            

comments powered by Disqus
↑ Back to top | Adams Bryan Tabs for Cant Stop This Thing We Started. Lyrics for acoustic guitar and electric guitar. Tablatures and chords are parodies/interpretations of the original songs. You may use it for private study, scholarship, research or language learning purposes only