» » »

Adams Bryan, Before The Night Is Over Chords (ver.1)

Artists:  A B C D E F G H I J K L M N O P Q R S T U V W X Y Z # 

Before The Night Is Over Chords (ver.1)

Adams Bryan Tabs
 Rating:
4/5 (4 votes)
Before The Night Is Over lessons Tabs too difficult? Try these video lessons and learn fast
1
                I got the tabs from:

couldnt find them here so I thought I'd post it here for others..

PEa..



Before The Night Is Over  

Intro: D A Bm G A x2 
E------------------------------------------------------------------------------------------------------------------------ 
B---5/10-10--10/12--7--8--8--------------------------------------------------------------------------------------- 
G------------------------------------------------------------------------------------------------------------------------ 
D------------------------------------------------------------------------------------------------------------------------ 
A------------------------------------------------------------------------------------------------------------------------ 
E------------------------------------------------------------------------------------------------------------------------ 
  

B            B/Bb G#               E 
hey baby - i got someone n' you got someone too 
B            B/Bb G#                          E 
hey baby - i don't know what we're gonna do 
E                                      F# 
how can something wrong feel so right 
E                   F# 
c'mon baby - hold on tight 
  
D                        A 
before the night is over 
      Bm                 G        A 
we gonna get what we desire 
D                        A 
remember what i told ya 
Bm                     G            A 
this could set our hearts on fire 

D A Bm G A 
  
hey baby - we're old enough to know that it's a sin 
hey baby the door is open slide on in 
this feels too good to be true 
I'll tell ya what i want to do 
  
(chorus x2) 

E------------------------------------------------------------------------------------------------------------------------ 
B------------------------------------------------------------------------------------------------------------------------ 
G---4/9--9---8--8--6--6--4--4--6p4---6/9--9---8--8--6--6--4--4--6p4---6/9--9---8--8--6--6--4--4--6p4--------- 
D----------------------------------------------------------------------------------------------------------4----6------ 
A------------------------------------------------------------------------------------------------------------------------ 
E------------------------------------------------------------------------------------------------------------------------ 

E-------------------------------------------------7/9--7--7---12/14---12--12------12-12---11-11--9-9---7-7------
B------------------------------------7/9--7--7------------------------------------------------------------------------
G---6p4---------------4/6--4--4-------------------------------------------------------------------------------------
D---4-----6----2--2--------------------------------------------------------------------------------------------------
A------------------------------------------------------------------------------------------------------------------------
E------------------------------------------------------------------------------------------------------------------------ 

E---9p7---9/12---11-11--9-9---7-7-------------------------------------------------------------------------------------
B------------------------------------------------------------------------------------------------------------------------
G------------------------------------------------------------------------------------------------------------------------
D------------------------------------------------------------------------------------------------------------------------
A------------------------------------------------------------------------------------------------------------------------
E------------------------------------------------------------------------------------------------------------------------ 
  
(chorus x2) 

Solo once vocals cut out: 

E------------------------------------------------------------------------------------------------------------------------ 
B---5/10-10--10/12--7--8--8---7------5-------7------8---10-10-10-10-10-10-10-10--12-12-12-12--15-15-15-15- 
G------------------------------------------------------------------------------------------------------------------------ 
D------------------------------------------------------------------------------------------------------------------------ 
A------------------------------------------------------------------------------------------------------------------------ 
E------------------------------------------------------------------------------------------------------------------------ 

E----15--14-14---12-12---10-10--12p10----15--14-14---12-12---10-10--12p10--------17------17------17-----17-
B----------------------------------------------------------------------------------------15------15------15-----15-----
G------------------------------------------------------------------------------------------------------------------------
D------------------------------------------------------------------------------------------------------------------------
A------------------------------------------------------------------------------------------------------------------------
E------------------------------------------------------------------------------------------------------------------------
            
Submit corrections

comments powered by Disqus
↑ Back to top | Adams Bryan Chords for Before The Night Is Over. Lyrics for acoustic guitar and electric guitar. 1 Tablatures and chords are parodies/interpretations of the original songs. You may use it for private study, scholarship, research or language learning purposes only