» » »

Somebody Kill Me Please Tabs (ver.2)

Artists:  A B C D E F G H I J K L M N O P Q R S T U V W X Y Z # 

Somebody Kill Me Please Tabs (ver.2)

Adam Sandler
Rating:
0/5 (0 votes)

Tabs too difficult? Try these video lessons and learn fast.
                This is off the Wedding Singer movie. I called it sombody kill me 
because i didn’t know what else to call it.

Palm mute these

e-------------------------------------------------------
b-------------------------------------------------------
g-------------------------------------------------------
d-2-2-2-2-2-2-2-2--1-1-1-1-1-1-1-1--2-2-2-2-2-2-2-2-2-2-
a-2-2-2-2-2-2-2-2--2-2-2-2-2-2-2-2--0-0-0-0-0-0-0-0-0-0-
e-------------------------------------------------------

e------------------------------------------
b------------------------------------------
g------------------------------------------
d--2-2-------------------------------------
a--0-0-------------------------------------
e------------------------------------------

Strum these for the chorus part

e--0--------0------------0--------------------
b--0--------0------------2--------------------
g--1--------2------------2--------------------
d--2--------1------------2--------------------
a--2--------2------------0--------------------
e---------------------------------------------
            
Tabs too difficult? Try these video lessons and learn fast.


comments powered by Disqus
↑ Back to top | Tablatures and chords are parodies/interpretations of the original songs. You may use it for private study, scholarship, research or language learning purposes only