» » »

Santa Song Tabs (ver.1)

Artists:  A B C D E F G H I J K L M N O P Q R S T U V W X Y Z # 

Santa Song Tabs (ver.1)

Adam Sandler
Rating:
0/5 (0 votes)

Hard to play? Try these video lessons and learn fast.
                adam sandlers santa song on saturday night live

intro

e-3--------------
b-3-----------5--
g-3-----------5--
d-5-----------x--
a-5-----------4--
e-3-----------5--

verse

e-3-----------
b-3--7--8--5-- x3
g-3--7--8--5--
d-5--x--x--x--
a-5--6--7--4--
e-3--7--8--5--

e-33---------
b-33--77--8--
g-33--77--8--
d-55--xx--x--
a-55--66--7--
e-33--77--8--

e-33------------
b-33--77--8--5-- x2
g-33--77--8--5--
d-55--xx--x--x--
a-55--66--7--4--
e-33--77--8--5--

e-33-----------
b-33--7--8--5-- x2
g-33--7--8--5--
d-55--x--x--x--
a-55--6--7--4--
e-33--7--8--5--

e-33--------
b-33--7--5-- x2
g-33--7--5--
d-55--x--x--
a-55--6--4--
e-33--7--5--

chorus

e-3333-5555-8--5-3--
b-3333-5555-8--5-3--
g-3333-5555-8--5-3--
d-5555-7777-10-7-5--
a-5555-7777-10-7-5--
e-3333-5555-8--5-3--

verse 2

e-33-------------
b-33--77--88--5-- x2
g-33--77--88--5--
d-55--xx--xx--x--
a-55--66--77--4--
e-33--77--88--5--

e-33------------
b-33--77--8--5-- x2
g-33--77--8--5--
d-55--xx--x--x--
a-55--66--7--4--
e-33--77--8--5--

e-33---------
b-33--77--8--
g-33--77--8--
d-55--xx--x--
a-55--66--7--
e-33--77--8--

chorus


e-3333-5555-8--5-3--
b-3333-5555-8--5-3--
g-3333-5555-8--5-3--
d-5555-7777-10-7-5--
a-5555-7777-10-7-5--
e-3333-5555-8--5-3--

end


e-33--------------
b-33--77--88--55-- x2
g-33--77--88--55--
d-55--xx--xx--xx--
a-55--66--77--44--
e-33--77--88--55--

e-3-----------
b-3--7--8--5-- 
g-3--7--8--5--
d-5--x--x--x--
a-5--6--7--4--
e-3--7--8--5--

finish on 


e----
b-5-- 
g-5--
d-x--
a-4--
e-5--
            
Hard to play? Try these video lessons and learn fast. | Correct




comments powered by Disqus
↑ Back to top | Tablatures and chords are parodies/interpretations of the original songs. You may use it for private study, scholarship, research or language learning purposes only