» » »

Adam Sandler, Piece Of *** Car Bass tabs (ver.1)

Artists:  A B C D E F G H I J K L M N O P Q R S T U V W X Y Z # 

Piece Of *** Car Bass tabs (ver.1)

Adam Sandler Tabs
 Rating:
4/5 (4 votes)
Piece Of *** Car lessons Tabs too difficult? Try these video lessons and learn fast
1
                Adam Sandler
Piece of *** Car


1)
G-----------
D-----------
A--9--7--5--
E-----------
Intro

2)
G---------------------------------
D---------------------------------
A---------7-7-7---5-5-5---7-7-7---
E--5-5-5--------------------------
Verse

3)
G--------------------------
D-----4--7-----6--9--------
A--5--------7--------------
E--------------------------
Bridge
            
Submit corrections

comments powered by Disqus
↑ Back to top | Adam Sandler Bass for Piece Of *** Car. Lyrics for acoustic guitar and electric guitar. 1 Tablatures and chords are parodies/interpretations of the original songs. You may use it for private study, scholarship, research or language learning purposes only