» » »

Adam Sandler, Forgetful Lucy Tabs (ver.3)

Artists:  A B C D E F G H I J K L M N O P Q R S T U V W X Y Z # 

Forgetful Lucy Tabs (ver.3)

Adam Sandler Tabs
Rating:
0/5 (0 votes)
Forgetful Lucy lessons Tabs too difficult? Try these video lessons and learn fast
                


                   "Forgetful Lucy" by Adam Sandler
                   From the 50 First Dates Soundtrack


STANDARD TUNING


INTRO

|------------------------------------------------|
|--5--55---4--44---222--4--44--4-----------------|
|--4--44---4--44---444--4--44--4-----------------|
|--2--22---2--22---222--2--22--2-----------------|
|--2--22---2--22---222--2--22--2-----------------|
|------------------------------------------------|


|------------------------------------------------|
|--5--55---4--44---222--4------------------------|
|--4--44---4--44---444--4------------------------|
|--2--22---2--22---222--2------------------------|
|--0--00---0--00---000--0------------------------|
|------------------------------------------------|



VERSE

|------------------------------------------------|
|--5--55---4--44---222--4--44--4-----------------|
|--4--44---4--44---444--4--44--4-----------------|
|--2--22---2--22---222--2--22--2-----------------|
|--2--22---2--22---222--2--22--2-----------------|
|------------------------------------------------|



|------------------------------------------------|
|--5--55---4--44---222--4------------------------|
|--4--44---4--44---444--4------------------------|
|--2--22---2--22---222--2------------------------|
|--0--00---0--00---000--0------------------------|
|------------------------------------------------|





CHORUS

|------------------------------------------------|
|--4---------5-----------------------------------|
|--4---------4-----------------------------------|
|--4---------2-----------------------------------|
|--2---------0-----------------------------------|
|------------------------------------------------|
            
Submit corrections

comments powered by Disqus
↑ Back to top | Adam Sandler Tabs for Forgetful Lucy. Lyrics for acoustic guitar and electric guitar. Tablatures and chords are parodies/interpretations of the original songs. You may use it for private study, scholarship, research or language learning purposes only