» » »

Adam Lambert, Whataya Want From Me Tabs (ver.8)

Artists:  A B C D E F G H I J K L M N O P Q R S T U V W X Y Z # 

Whataya Want From Me Tabs (ver.8)

Adam Lambert Tabs
 Rating:
4/5 (4 votes)
Whataya Want From Me lessons Tabs too difficult? Try these video lessons and learn fast
1
                

Standard Tuning

x scratching of muted strings

--------|-10---10--9----14-14-14-14-7-7---14-14-14-14-7-7---|-----------------|
--------|-x----x---x----x--x--x--x--x-x---x--x--x--x--x-x---|-----------------|
--------|-x----x---x----x--x--x--x--x-x---x--x--x--x--x-x---|-----------------|
--------|-9----9---7----12-12-12-12-5-5---12-12-12-12-5-5---|-----------------|
--------|---------------------------------------------------|-----------------|
--------|---------------------------------------------------|-----------------|
         Intro/Verse

--------|---------------|-----------------------------------------------------|
--------|---------------|-----------------------------------------------------|
--------|-4-4---4-4-4-4-|-----------------------------------------------------|
--------|-5-5---5-5-5-5-|-----------------------------------------------------|
--------|---------------|-----------------------------------------------------|
--------|---------------|-----------------------------------------------------|
         PreChorus

--------|------------------------------------------------|--------------------|
--------|------------------------------------------------|--------------------|
--------|----4-----4-----6-----6-----4-----4-----7-----7-|--------------------|
--------|-5--5--5--5--7--7--7--7--4--4--4--4--7--7--7--7-|--------------------|
--------|-5-----5-----7-----7-----2-----2-----5-----5----|--------------------|
--------|-x-----x-----x-----x-----x-----x-----x-----x----|--------------------|
         Chorus

--------|--------------------------------------------------------|------------|
--------|--------------------------------------------------------|------------|
--------|-----12------12------14------14-----4-----4-----7-----7-|------------|
--------|-12--12--12--12--14--14--14--14--4--4--4--4--7--7--7--7-|------------|
--------|-10------10------12------12------2-----2-----5-----5----|------------|
--------|-x-------x-------x-------x-------x-----x-----x-----x----|------------|
        "Whataya want from me"

--------|-------------|--|-------------|--|-----------------------------------|
--------|-------------|--|-------------|--|-----------------------------------|
--------|-------------|--|-------------|--|-----------------------------------|
--------|-------------|4x|-17-17-17-17-|4x|-----------------------------------|
--------|-20-20-20-20-|--|-------------|--|-----------------------------------|
--------|-------------|--|-------------|--|-----------------------------------|
         Verse 2 Vibrate Throughout
            
Submit corrections

comments powered by Disqus
↑ Back to top | Adam Lambert Tabs for Whataya Want From Me. Lyrics for acoustic guitar and electric guitar. 1 Tablatures and chords are parodies/interpretations of the original songs. You may use it for private study, scholarship, research or language learning purposes only