» » »

Voodoo Bass tabs (ver.1)

Artists:  A B C D E F G H I J K L M N O P Q R S T U V W X Y Z # 

Voodoo Bass tabs (ver.1)

Adam Lambert
Rating:
5/5 (1 vote)

Tabs too difficult? Try these video lessons and learn fast.
                Band: Adam Lambert
Bassist: Tommy Joe Ratliff
Tuning: Dropped D

You can play this song in Half Step down Tuning but why tune down 
4 strings if You have great possibility to tune down only one?

Intro:

G|--------------------------------------------------------|
D|--------------------------------------------------------|
A|--------------------------------------------------------|
D|13\-11111111--111144444444--444466666666--666611111111--| x2 except slide

Pre Chorus:

G|----------------------------------------|
D|----------------------------------------|
A|9(x13)----8(x8)7(x5)----6(x13)--6(x14)\-| x2 except slide out
D|----------------------------------------|     in first time 

Chorus:

G|----------------------------------------------------|
D|----------------------------------------------------|
A|----------------------------------------------------|
D|1-1-11-1-1~--4-4-44-4-4~--6-6-66-6-6~--1-1-11-1-1~--| x2

Verse:

G|----------------------------------------------------|
D|----------------------------------------------------|
A|----------------------------------------------------|
D|11111111--111144444444--444466666666--666611111111--| x2

Pre Chorus:

G|----------------------------------------|
D|----------------------------------------|
A|9(x13)----8(x8)7(x5)----6(x13)--6(x14)--|
D|----------------------------------------|

G|---------------------------------------------|
D|---------------------------------------------|
A|9(x13)----8(x8)7(x5)----6(x13)--6(x13)/13\0--|
D|---------------------------------------------|

Chorus:

G|----------------------------------------------------|
D|----------------------------------------------------|
A|----------------------------------------------------|
D|1-1-11-1-1~--4-4-44-4-4~--6-6-66-6-6~--1-1-11-1-1~--| x2


G|----------------------------------------------------|
D|----------------------------------------------1--1~-|
A|2-2-22-2-2~--1-1-11-1-1~----------------------------|
D|--------------------------1-1-11-1-1~--1-1-11---1---|

G|----------------------------------------------------|
D|---------------------------------1--1~--------1--1~-|
A|2-2-22-2-2~--1-1-11-1-1~----------------------------|
D|--------------------------1-1-11---1---1-1-11---1---|

G|----------------------------------------------------|
D|-------4--4~--------3--3~--------1--1~--------1--1~-|
A|----------------------------------------------------|
D|4-4-44---4---3-3-33---3---1-1-11---1---1-1-11---1---|

G|--------------------------------------------------------------|
D|--------------------------------------------------------------|
A|2-2-22-2-2~----------------------------1/(13)-13-13-13~--(13)\|
D|-------------3-3-33-3-3~--6-6-66-6-6~-------------------------|

Chorus:

G|----------------------------------------------------|
D|----------------------------------------------------|
A|----------------------------------------------------|
D|1-1-11-1-1~--4-4-44-4-4~--6-6-66-6-6~--1-1-11-1-1~--| x3

G|----------------------------------------------------|
D|----------------------------------------------------|
A|----------------------------------------------------|
D|1-1-11-1-1~--4-4-44-4-4~--6-6-66-6-6~--1-1-11-------|

Hope that You'll find this tab useful. Please rate!

/  slide up
\  slide down
h  hammer-on
p  pull-off
~  let ring
            
Tabs too difficult? Try these video lessons and learn fast.


comments powered by Disqus
↑ Back to top | Tablatures and chords are parodies/interpretations of the original songs. You may use it for private study, scholarship, research or language learning purposes only