» » »

Adam Lambert, Sure Fire Winners Tabs (ver.1)

Artists:  A B C D E F G H I J K L M N O P Q R S T U V W X Y Z # 

Sure Fire Winners Tabs (ver.1)

Adam Lambert Tabs
 Rating:
4/5 (5 votes)
Sure Fire Winners lessons Tabs too difficult? Try these video lessons and learn fast
                -------------------------------------------------------------------------------
-------------------------------------------------------------------------------

Tuning:

verse:
-|(synth arr. for guitar)
e|---------------------------|----------|
B|-9--9-9-9-9-9--9-9-9--12-9-|----------|
G|---------------------------|-4--------|
D|---------------------------|---1-2--2-|
A|---------------------------|----------|
E|---------------------------|----------|
-|(synth 2 arr. for guitar)  |          |
e|-17-------17-17-17---------|-7--------|
B|---------------------------|---4-5--4-|
G|---------------------------|----------|
D|---------------------------|----------|
A|---------------------------|----------|
E|---------------------------|----------|
-|(guitar)                   |          |
e|---------------------------|----------|
B|---------------------------|----------|
G|---------------------------|--------8-|
D|-6-6--------6-6------------|-----2--8-|
A|-6-6--------6-6------------|-----2--6-|
E|-4-4--------4-4------------|-----0----|

chorus:
-| x3                               | x1                      |
-|(synth arr. for guitar)           |                         |
e|----------------------------------|-------------------------|
B|----------------------------------|-------------------------|
G|-4-------6-------9------------9-8-|-4-------6-------9-------|
D|-x-------x-------x------------x-x-|-x-------x-------x-------|
A|-2-------4-------7------------7-6-|-2-------4-------7-------|
E|-----------------0------------0---|-------------------------|
-|(synth 2 arr. for guitar)         |                         |
e|-444-444-444-444-444-444-444-444--|-4-444-444-444-444-444-44|
B|-444-444-444-444-444-444-444-444--|-4-444-444-444-444-444-44|
G|----------------------------------|-------------------------|
D|----------------------------------|-------------------------|
A|----------------------------------|-------------------------|
E|----------------------------------|-------------------------|
-|(guitar)                          |                         |
e|----------------------------------|-------------------------|
B|----------------------------------|-------------------------|
G|---------6-6-6-6---------------88-|---------6-6-6-6-9-9-9-9-|
D|-6-6-6-6-6-6-6-6-2-2-2-2-2-2-2-88-|-6-6-6-6-6-6-6-6-9-9-9-9-|
A|-6-6-6-6-4-4-4-4-2-2-2-2-2-2-2-66-|-6-6-6-6-4-4-4-4-7-7-7-7-|
E|-4-4-4-4---------0-0-0-0-0-0-0----|-4-4-4-4-----------------|

post-chorus:
e|--------------------------|
B|--------------------------|
G|--------------------------|
D|--------------------------|
A|--------------------------|
E|-4-4----7-7----4-4----7-7-|
-|                          |
e|--------------------------|
B|--------------------------|
G|--------------------------|
D|--------------------6\----|
A|--------------------x-----|
E|------------------444\----|

Guitar solo:
e|-----------------------------------------------------|
B|-----------------------------------------------------|
G|---------4^-----6h8p6-4^-------------4^--------------|
D|-4-6-6-6----6-4----------6---4-6-6-6----6-4----------|
A|--------------------------------------------6p4--4---|
E|------------------------------------------------7--4-|


e|------------------------------------------------|------------------------|
B|------------------------------------------------|------------------------|
G|---------4^-----6h8p6-4h6p4---4^---------4^-----|------------------------|
D|-4-6-6-6----6-4-------------6----6-6-6-6----6-4-|------------------------|
A|------------------------------------------------|----------------------4-|
E|------------------------------------------------|-2-1--1-1-2--2-1--1-2---3

guitar solo 2:
e|-----------------------------------------------------|
B|-----------------------------------------------------|
G|---------4^-----6h8p6-4^-------------4^--------------|
D|-4-6-6-6----6-4----------6---4-6-6-6----6-4----------|
A|--------------------------------------------6p4--4---|
E|------------------------------------------------7--4-|

e|-----------------------------------------------------|
B|-----------------------------------------------------|
G|---------4^-----6h8p6-4h6p4---4-6-------9------------|
D|-4-6-6-6----6-4-------------6---6-------9------------|
A|--------------------------------4-------7------------|
E|-----------------------------------------------------|




| /  slide up
| \  slide down
| h  hammer-on
| p  pull-off
| ~  vibrato
| +  harmonic
| x  Mute note
===============================================================================
            
Submit corrections

comments powered by Disqus
↑ Back to top | Adam Lambert Tabs for Sure Fire Winners. Lyrics for acoustic guitar and electric guitar. Tablatures and chords are parodies/interpretations of the original songs. You may use it for private study, scholarship, research or language learning purposes only