» » »

Music Again Bass tabs (ver.1)

Artists:  A B C D E F G H I J K L M N O P Q R S T U V W X Y Z # 

Music Again Bass tabs (ver.1)

Adam Lambert
Rating:
5/5 (1 vote)

Hard to play? Try these video lessons and learn fast.
                ---------------------------------------------------------------------------


---------------------------------------------------------------------------

Original music by: Adam Lambert



Tuning: Standard (EADG)

Verse
=====

G|---------------------------------|
D|---------------------------------|
A|-665--------------------3-3-3----|
E|----3-3-3-3-3-3-3-3-3-3------4-4-|

G|----------------------------------|----------------------------------|
D|----------------------------------|----------------------------------|
A|-------------------------3-3-3----|-------------------------3-3-3----|
E|-3-3-3-3-3-3-3-3-3-3-3-3------4-4-|-3-3-3-3-3-3-3-3-3-3-3-3------4-4-|

Chorus
======

G|-------------------------------------|----------------------------------|
D|-------------------------------------|------------5/10\-----------------|
A|-8--7-7-----/121012\8888888888888888-|-8--7-7----------6666666666666666-|
E|-------7-78--------------------------|-------7-78-----------------------|

Post-Chorus
===========

G|-----------------------|-----------------------|---------|
D|-----------------------|-----------------------|---------|
A|-----------------------|-3---------------------|---------|
E|-8------0101--5-5-33-3-|--------0101--5-5-33-3-|-333333\-|

Verse
=====

G|---------------------------------|----------------------------------|
D|---------------------------------|----------------------------------|
A|-665--------------------3-3-3----|-------------------------3-3-3----|
E|----3-3-3-3-3-3-3-3-3-3------4-4-|-3-3-3-3-3-3-3-3-3-3-3-3------4-4-|
[x2]

Chorus
======

G|-------------------------------------|----------------------------------|
D|-------------------------------------|------------5/10\-----------------|
A|-8--7-7-----/121012\8888888888888888-|-8--7-7----------6666666666666666-|
E|-------7-78--------------------------|-------7-78-----------------------|

Post-Chorus
===========

G|-----------------------|-----------------------|
D|-----------------------|-----------------------|
A|-----------------------|-3---------------------|
E|-8------0101--5-5-33-3-|--------0101--5-5-33-3-|

Bridge
======

G|-------------------------------------------|
D|-------------------------------------------|
A|-12------8-------3-------15------12------8-|
E|-------------------------------------------|

Guitar Solo
===========

G|-----------------------|-----------------------|
D|-----------------------|-----------------------|
A|-----------------------|-3---------------------|
E|-8------0101--5-5-33-3-|--------0101--5-5-33-3-|

G|---------------------------------|----------------------------------|
D|---------------------------------|----------------------------------|
A|-665-----------------------------|-------------------------33333----|
E|----3333333333333333333333333333-|-333333333333333333333333-----444-|

Chorus
======

G|-------------------------------------|----------------------------------|
D|-------------------------------------|------------5/10\-----------------|
A|-8--7-7-----/121012\8888888888888888-|-8--7-7----------6666666666666666-|
E|-------7-78--------------------------|-------7-78-----------------------|

Post-Chorus
===========

G|-----------------------|-----------------------|
D|-----------------------|-----------------------|
A|-----------------------|-3---------------------|
E|-8------0101--5-5-33-3-|--------0101--5-5-33-3-|

G|-----------------------|-------------|
D|-----------------------|-------------|
A|-3---------------------|-3-----------|
E|--------0101--5-5-33-3-|--------0101-|
            
Hard to play? Try these video lessons and learn fast. | Correct




comments powered by Disqus
↑ Back to top | Tablatures and chords are parodies/interpretations of the original songs. You may use it for private study, scholarship, research or language learning purposes only