» » »

Adam Lambert, If I Had You Bass tabs (ver.1)

Artists:  A B C D E F G H I J K L M N O P Q R S T U V W X Y Z # 

If I Had You Bass tabs (ver.1)

Adam Lambert Tabs
 Rating:
4/5 (8 votes)
If I Had You lessons Tabs too difficult? Try these video lessons and learn fast
                This is My first Tab.  I'm pretty sure it's correct it's how I play it and it 
sounds just about dead on to me.

Intro:
G|------------------------------|2X
D|------------------------------|
A|---7-7-7-7-9-10-10-101010-12--|
E|------------------------------|

G|-------------------------------------------------|
D|-------------------------------------------------|
A|---7-7-7-7-9-10-10-101010-12----------9-5-5-555/9|
E|------------------------------7-7-7-7------------|
                        This is a really quick 9--^
Verse:

G|-------------------------------------------------|3X
D|-------------------------------------------------|
A|---7-7-7-7-9-10-10-101010-12----------9-5-5-555/9|
E|------------------------------7-7-7-7------------|
                              Same with this one--^
G|-------------------------------------------------|
D|-------------------------------------------------|
A|---7-7-7-7-9-10-10-101010-12----------9-(5)------|
E|------------------------------7-7-7-7------------|

Chorus:

G|-------------------------------------------------|5X
D|-------------------------------------------------|
A|---33333333-77777777-55555555-22222222-----------|
E|-------------------------------------------------|

Bridge:

G|-------------------------------------------------|3X
D|-------------------------------------------------|
A|---5-5--7-7--3-3---------------------------------|
E|-------------------------------------------------|

G|-------------------------------------------------|
D|-------------------------------------------------|
A|---5--7--15--------------------------------------|
E|-------------------------------------------------|
            ^ I sometimes play this 15 as a 3
G|-------------------------------------------------|3X
D|-------------------------------------------------|
A|---5-5--7-7--3-3---------------------------------|
E|-------------------------------------------------|

G|-------------------------------------------------|
D|-------------------------------------------------|
A|---5--7--15--------------------------------------|
E|-------------------------------------------------|
            ^ This could also be a 3
Enjoy!
            
Submit corrections

comments powered by Disqus
↑ Back to top | Adam Lambert Bass for If I Had You. Lyrics for acoustic guitar and electric guitar. Tablatures and chords are parodies/interpretations of the original songs. You may use it for private study, scholarship, research or language learning purposes only