>
 >
What A Waster

What A Waster Guitar Tabs

Adam Green - What A Waster chords, tabs, tablatures, lyrics

Guitar lessons | Add/correct | Request | Top 50 tabs Artists:  A B C D E F G H I J K L M N O P Q R S T U V W X Y Z 0-9

What A Waster Guitar Tabs – Adam Green

CD, Sheet music, Poster

Do you like What A Waster? Share with your friends now
Tabs
Track: What A Waster


Don't know anything about this artist and why he covered this song, a friend sent me it
and I figured it out. Seems to be generally similar to the Libertines original.

Note: Usually when the guitar for a song has a capo on its neck, the tab reads as if the
first fret beyond the capo is the 1st fret of the actual fret board. I find this is
pretty difficult to comprehend when reading a tab because everything needs to be
reprocessed in my mind before I can play it. So I'm tabbing this song out as if the
capo is not there. 
      So if something is played on the 7th fret for example, the tab will read 7 as
opposed to 3 (with consideration to the fact the capo is on the 4th fret). 
      Bear in mind this tab has not been transcribed so you can play the song without
the capo.



STANDARD TUNING

Capo: 4th Fret



INTRO:

E|---------7-6----|-5-5-5-5-5-5-5-5/7-7-7-7-7-7-7-7--| |--------------|
B|--5--0---5-4----|-5-5-5-5-5-5-5-5/7-7-7-7-7-7-7-7--| |-5--5-5-5-4-5-|
G|-6--6--6--------|-6-6-6-6-6-6-6-6/8-8-8-8-8-8-8-8--| |-6--6-6-6-6-6-|
D|----------------|-7-7-7-7-7-7-7-7/9-9-9-9-9-9-9-9--| |-6--6-6-6-6-6-|
A|----------------|-7-7-7-7-7-7-7-7/9-9-9-9-9-9-9-9--| |--------------|
E|----------------|-5-5-5-5-5-5-5-5/7-7-7-7-7-7-7-7--| |--------------|


VERSE 1:

Am                    D
What a waster, what a fucking waster

    G                               
You pissed it all up the wall
                                                 
Em                           Am    
Round the corner where they chased her

                    D
There's tears coming out from everywhere

G                Em
The city's hard, the city's fair

Am                          D
Get back inside, you've got nothing on and

G                              Em
And mind your bleedin' own, you two bob cunt.



VERSE 2:

Am                       D                     
When she wakes up in the morning, 

    G                   Em
She writes down all her dreams

Am                      D
Reads like the book of revelations

       G         Em
Or the celestine prophecies 

Am                D 
Oh I really wanna know 

G                        Em
Where does her money go, Where does all the money go?

Am        D               G      
Straight, straight up her nose. 


BREAK:

E|-7-7-6-6-5-5-4-------------------5-5-5-6-7-7-7-7-6-7--|
B|-7-7-6-6-5-5-4-----5--5-5-5-4-5--5-5-5-6-7-7-7-7-6-7--|
G|-------------------6--6-6-6-6-6--6-6-6----------------|
D|-------------------6--6-6-6-6-6--7-7-7----------------|
A|------------------------------------------------------|
E|------------------------------------------------------|


CHORUS:

      F                   G
And I never even liked it anyway

F                        G
I much preferred it the other way


BREAK:

E|-4--4-4-4-4-4-|
B|-5--5-5-5-4-5-|
G|-6--6-6-6-6-6-|
D|-6--6-6-6-6-6-|
A|--------------|
E|--------------|


VERSE 3:

Am            D   
What a divvy, what a fucking div.

G                     Em
Talking like a moron, walking like a spiv

      Am             D  
I was laying in bed, paying my rent

       G                        Em                             Am  
He was knocking on the door for something that he lent her brother

               D
Meanwhile from under the covers she says

G                          Em
Save me from tomorrow man, save me from tommorow

   Am    D          *
Oh no,   Oh no not me


*BREAK:
 
E|-7-7-7-7-7-7---7-7-6-6-5-5-4-------------------5-5-5-6-7-7-7-7-6-7--|
B|-7-7-7-7-7-7---7-7-6-6-5-5-4-----5--5-5-5-4-5--5-5-5-6-7-7-7-7-6-7--|
G|---------------------------------6--6-6-6-6-6--6-6-6----------------|
D|---------------------------------6--6-6-6-6-6--7-7-7----------------|
A|--------------------------------------------------------------------|
E|--------------------------------------------------------------------|



CHORUS:

      F                    G
And I never even liked it anyway

F                        G
I much preferred it the other way

F                G
I never liked it anyway

F                    G
I much prefer it the other way


BREAK:

E|-4--4-4-4-4-4---------|
B|-5--5-5-5-4-5----x-x--|
G|-6--6-6-6-6-6----x-x--|
D|-6--6-6-6-6-6----x-x--|
A|----------------------|
E|----------------------|


VERSE 4:

Am             D
What a waster, what a fucking waster

G                        
You pissed it all up the wall

Em                          Am
Round the corner where they chased her

                      D
There's tears coming out from everywhere

G                Em
The city's hard, the city's fair

Am             D                      *
What a waster, what a fucking waster yeah


*LAST BREAK:

E|-7~-----7/11--|
B|-7~-----7p4---|
G|-8~-----------|
D|--------------|
A|--------------|
E|--------------|





Comments


Popular Adam Green tabs & chords
Bungee Chords
Bungee 1 Chords
Down On The Street Chords
Emily 1 Chords
Novotel Chords
Bluebirds Ukulele
Drowning Head First Ukulele
Gemstones Ukulele
Novotel Ukulele
Were Not Supossed To Be Lovers Ukulele


Song lyrics



↑ Back to top | Tablatures and chords are parodies/interpretations of the original songs. You may use it for private study, scholarship, research or language learning purposes only
© 2014 AZChords.com Contact us | Privacy policy | DMCA | Add/correct tabs | Request tabs | Top 50 tabs