» » »

Vultures Bass tabs (ver.1)

Artists:  A B C D E F G H I J K L M N O P Q R S T U V W X Y Z # 

Vultures Bass tabs (ver.1)

Adam Green
Rating:
5/5 (1 vote)

Hard to play? Try these video lessons and learn fast.
                Adam Green – Vultures (Bass Tabs)

Intro x2
G|-------------------------|
D|-------------------------|
A|-0---0-0-2-4-5---4-5-4-2-|
E|-------------------------|

Verse
G|--------------------------|--------------------------|
D|--------------------------|--------------------------| x 2
A|-0---2--4--5--5--4-5-4-2--|-0---0-0-2-4-5---4-5-4-2--|
E|--------------------------|--------------------------|

Chorus
G|--------------------------------|
D|-0---7-6-4--2-----2-4-7-6-4-2-0-|
A|--------------------------------|
E|--------------------------------|

Intro x1

Verse

Bridge
G|------------------------|
D|------------------------|
A|-5--4---5--4---5--4---2-|
E|------------------------|

Intro x1

Verse

Chorus

End
G|---------------|---1-2-4--2-|
D|---------------|-4----------| x 3
A|-0---0-0-2-4-5-|------------|
E|---------------|------------|
            
Hard to play? Try these video lessons and learn fast. | Correct




comments powered by Disqus
↑ Back to top | Tablatures and chords are parodies/interpretations of the original songs. You may use it for private study, scholarship, research or language learning purposes only