» » »

Los Rancheros Tabs (ver.1)

Artists:  A B C D E F G H I J K L M N O P Q R S T U V W X Y Z # 

Los Rancheros Tabs (ver.1)

Adam Ant
Rating:
3/5 (2 votes)

Hard to play? Try these video lessons and learn fast.
                (Intro)
Guitar I
E-|-------------------------------------|-----------------------------------------------|
B-|-------------------------------------|-----------------------------------------------|
G-|-------------------------------------|-----------------------------------------------|
D-|-------------------------------------|-----------------------------------------------|
A-|-----------0----2--------------------|----2---2---3---2---0--2---0-------------------|
E-|---3---3-----------------------------|------------------------------3----------------|

E-|-------------------------------------|-----------------------------------------------|
B-|-------------------------------------|-----------------------------------------------|
G-|-------------------------------------|-----------------------------------------------|
D-|-------------------------------------|-----------------------------------------------|
A-|-----------2----0--------------------|-------------0---------------------------------|
E-|---3---3-----------------------------|----2----2--------3----------------------------|


Guitar II
C - C - C - C - G - Eb - C - C
            
Hard to play? Try these video lessons and learn fast. | Correct




comments powered by Disqus
↑ Back to top | Tablatures and chords are parodies/interpretations of the original songs. You may use it for private study, scholarship, research or language learning purposes only