» » »

Adam And The Ants, Stand And Deliver Bass tabs (ver.1)

Artists:  A B C D E F G H I J K L M N O P Q R S T U V W X Y Z # 

Stand And Deliver Bass tabs (ver.1)

Adam And The Ants Tabs
 Rating:
4/5 (5 votes)
Stand And Deliver lessons Tabs too difficult? Try these video lessons and learn fast
                Stand and Deliver- Adam and the Ants
G|--------------------------------------------------------------------------|
D|--------------------------------------------------------------------------|
A|-7-7-7-5-5-3-2-3-(3)-(3)-(3)----------------------------------------------|
E|----------------------------------------3-(3)-(3)-(3)-1-(1)-(1)-(1)-------|
Main Riff at around 5 seconds in.  In brackets are notes you should "gallop" in with the 
you'll know when to stop going with each note after a few playthroughs and it just 
the song sound more complete.
Verse
"We're the dandy highwaymen" etc
G|--------------------------------------------------------------------------|
D|--------------------------------------------------------------------------|
A|-3-(3)-(3)-(3)---------------------------------------------7-7-7-5-5-3-2-3|
E|------------------3-(3)-(3)-(3)-1-(1)-1-(1)-(1)-(1)-----------------------|x2
Chorus
"Stand and deliver! Your money or your life!"
G|------------------------------------------------------------------------|
D|------------------------------------------------------------------------|
A|-3-(3)-(3)-(3)-------------------------------------------7-7-7-5-5-3-2-3|
E|------------------3-(3)-(3)-(3)-1-(1)-1-(1)-(1)-(1)---------------------|x2 (With 
for the drums and the HUURHGH bit)
Solo
verse riff.
G|------------------------------------------------------------------------|
D|------------------------------------------------------------------------|
A|-3-(3)-(3)-(3)----------------------------------------------------------|
E|------------------3-(3)-(3)-(3)-1-(1)-1-(1)-(1)-(1)---------------------|
However, this part I am not sure on. It fits, at any rate.
Bridge
(Even though you fool your soul etc)
Again, not entirely sure on this part, I do not think there is any bass for it, but if 
absolutely have to play something, the verse part fits again:
G|-------------------------------------------------------------------|
D|-------------------------------------------------------------------|
A|-3-(3)-(3)-(3)-----------------------------------------------------|
E|------------------3-(3)-(3)-(3)-1-(1)-1-(1)-(1)-(1)----------------|
Rest of the song.
(Fa diddly quah quah etc)
G|------------------------------------------------------------------------|
D|------------------------------------------------------------------------|
A|-3-(3)-(3)-(3)-------------------------------------------7-7-7-5-5-3-2-3|
E|------------------3-(3)-(3)-(3)-1-(1)-1-(1)-(1)-(1)---------------------|

bridge!)
            
Submit corrections

comments powered by Disqus
↑ Back to top | Adam And The Ants Bass for Stand And Deliver. Lyrics for acoustic guitar and electric guitar. Tablatures and chords are parodies/interpretations of the original songs. You may use it for private study, scholarship, research or language learning purposes only