» » »

Ada Band, Karena Wanita Ingin Dimengerti Tabs (ver.2)

Artists:  A B C D E F G H I J K L M N O P Q R S T U V W X Y Z # 

Karena Wanita Ingin Dimengerti Tabs (ver.2)

Ada Band Tabs
 Rating:
4/5 (4 votes)
Karena Wanita Ingin Dimengerti lessons Tabs too difficult? Try these video lessons and learn fast
                Title   :Karena Wanita (Ingin Dimengerti)
Band    :Ada Band
Album   :Karena Wanita

Nich Tab gw yakin 90% bener. Tab-nya dah gw per-simple biar lebih mudah dimengerti........
or di fs gw rom@n.martin

Tab for guitar (Intro):

e|-----------14-12--10-9---------------|-----------14-12--9-9-11-11----------|
B|----------------10----12-10-12-------|----------------10-------------------|
G|14-13-11-14--------------------------|14-13-11-14--------------------------|
D|-------------------------------------|-------------------------------------|
A|-------------------------------------|-------------------------------------|
E|-------------------------------------|-------------------------------------|


Intro: Em   C   G   D (2x)

Em        C          G           D
Lekuk indah hadirkan pesona

Em       C         G                 D 
Kemuliaan bagi yang memandang 

Em   C              G      D              Am                          B     
Setiamu symbol keagungan khas perawan yang… kau miliki

Em  C           G           D    Em    C            G       D   
Akulah pengagum ragamu, tak ingin ku menyakitimu

Em     C       G            D                 Am
Lindungi dari sengat dunia yang mengancam

      B      Am     B
Nodai sucinya lahirmu

               Em      C         G          D 
Reff: Karena wanita ingin dimengerti

                Em       C          G       D
      Lewat tutur lembut dan laku agung

             Em      C          G         D  
      Karena wanita ingin dimengerti

                Am                          B
      Manjakan dia dengan kasih sayang

Em      C           G           D 
Ingin kuajak engkau menari

Em          C            G         D
Bermandi hangat cahaya bulan

Em        C          G          D         Am            B      
Sebagai tanda kebahagiaan bagi semesta cinta kita


Back To: Reff

C                D         G  F#m  Em
   Bintang terang itulah diri    mu

C                 B              E
   Janganlah redup dan mati

Am        D           G  F#m   Em  Am      B        
   Aku di belakangmu memeluk  dan menjagamu


Solo: Em   C   G   D (2x)   Em   C   G   D   A   B

e|--------------------------|---------------------------12--12-12-|
B|10-9-10-9-7-7-5-3-2-0-/5~-|10-9-10-9-12-12/14-14-12-10--10--9---|
G|---------------------2----|-------------------------------------|
D|--------------------------|-------------------------------------|
A|--------------------------|-------------------------------------|
E|--------------------------|-------------------------------------|

e|--------------------------|-10-9-13-12--/15~~/17~~--------------|
B|10-9-10-9-7-7-5-3-2-0-/7~~|7----9-----11------------------------|
G|---------------------2----|-------------------------------------|
D|--------------------------|-------------------------------------|
A|--------------------------|-------------------------------------|
E|--------------------------|-------------------------------------|

Back To: Reff


Coda: Em   C   G   D
            
Submit corrections

comments powered by Disqus
↑ Back to top | Ada Band Tabs for Karena Wanita Ingin Dimengerti. Lyrics for acoustic guitar and electric guitar. Tablatures and chords are parodies/interpretations of the original songs. You may use it for private study, scholarship, research or language learning purposes only