» » »

Game Tabs (ver.2)

Artists:  A B C D E F G H I J K L M N O P Q R S T U V W X Y Z # 

Game Tabs (ver.2)

Action Action
Rating:
4/5 (1 vote)

Tabs too difficult? Try these video lessons and learn fast.
                the solo and other stuff later but youll have to liv with this for now this is a fun 
song to play. Good Luck

Tuning Standard


Verse (strum all the chords A few Times)
e|0-----------0-----------------------------------------|
B|1-----------0-----------------------------------------|
G|2-----------0-----------------Repaeat a few times-----|
D|2-----------2-------3---------------------------------|
A|0-----------2-------3---------------------------------|
E|------------0-------1---------------------------------|


Chorus Strum a few times
e|0----------0-----0-----------0------------------------|
B|1----------0-----1-----------1------------------------|
G|0-----3----0-----2-------3---0------------------------|
D|2-----3----2-----2----3--3---2---6--------------------|
A|3-----1----2-----0----3--1---3---6--------------------|
E|0----------0----------1------0---4--------------------|

The verse section is repeated for all the verses same with chorus and i think the intro 
the same as verse im not 100% sure

Thats All For now when i get the solo and rest of the  tab ill update this
            
Tabs too difficult? Try these video lessons and learn fast.




comments powered by Disqus
↑ Back to top | Tablatures and chords are parodies/interpretations of the original songs. You may use it for private study, scholarship, research or language learning purposes only