» » »

Action Action, Photograph Tabs (ver.1)

Artists:  A B C D E F G H I J K L M N O P Q R S T U V W X Y Z # 

Photograph Tabs (ver.1)

Action Action Tabs
Rating:
0/5 (0 votes)
Photograph lessons Tabs too difficult? Try these video lessons and learn fast
                -------------------------------------------------------------------------------
                             Photograph-Action Action
-------------------------------------------------------------------------------
Tuning: Standard

**Update** 3/7/09 synth intro added
chorus edited

Intro
e|---------------------------------------------------------------------------|
B|---------------------------------------------------------------------------|
G|-9-9-989-11-11-11----------------------------------------------------------|
D|-9-9-989-11-11-11-9-9-9-9--------------------------------------------------|
A|-7-7-767-9--9--9--9-9-9-9--------------------------------------------------|
E|------------------7-7-7-7--------------------------------------------------|

synth intro
e|-------------------------------11----14-------------14----11---------------|
B|-12-12-12-12-14-12-11-12-14-12----12----12-12-12-12----12----12-14-12-11---|
G|---------------------------------------------------------------------------|
D|---------------------------------------------------------------------------|
A|---------------------------------------------------------------------------|
E|---------------------------------------------------------------------------|


Verse pt 1
e|---------------------------------------------------------------------------|
B|---------------------------------------------------------------------------|
G|---------------------------------------------------------------------------|
D|-9-9-9-9-9-8-8-8-11-11-11-11-11--------------------------------------------|
A|-7-7-7-7-7-6-6-6-9--9--9--9--9--9-9-9--------------------------------------|
E|--------------------------------7-7-7--------------------------------------|

Verse pt 2 (repeat a few times)
e|---------------------------------------------------------------------------|
B|---------------------------------------------------------------------------|
G|-99-88-11-11---------------------------------------------------------------|
D|-99-88-11-11-99------------------------------------------------------------|
A|-77-66-9--9--99------------------------------------------------------------|
E|-------------77------------------------------------------------------------|


Pre-Chorus  (Guitar)
e|---------------------------------------------------------------------------|
B|---------------------------------------------------------------------------|
G|---------------------------------------------------------------------------|
D|-6-666666-8-999------------------------------------------------------------|
A|-6-666666-8-999------------------------------------------------------------|
E|-4-444444-6-777------------------------------------------------------------|

Pre-Chorus (synth thing)
e|---------------------------------------------------------------------------|
B|---------------------------------------------------------------------------|
G|---------------------------------------------------------------------------|
D|-6-666666-8-9~/11\9-6-666666-1-1h2p1h2-------------------------------------|
A|---------------------------------------------------------------------------|
E|---------------------------------------------------------------------------|


Chorus
e|---------------------------------------------------------------------------|
B|---------------------------------------------------------------------------|
G|-88-99-9---------88-99-9------------8888999911-11-11-11-13-13-13-13--------|
D|-88-99-9----99-9-88-99-9----99-9999-8888999911-11-11-11-13-13-13-13--------|
A|-66-77-7-99-99-9-66-77-7-99-99-9999-666677779--9--9--9--11-11-11-11--------|
E|---------66-77-7---------66-77-7777----------------------------------------|

e|---------------------------------------------------------------------------|
B|---------------------------------------------------------------------------|
G|-88889999------------------------------------------------------------------|
D|-88889999---9~-------------------------------------------------------------|
A|-66667777-9-9~-------------------------------------------------------------|
E|----------6-7~-------------------------------------------------------------|

INTRO

Verse pt 1

Verse pt 2

Bridge
e|---------------------------------------------------------------------------|
B|---------------------------------------------------------------------------|
G|---------------------------------------------------------------------------|
D|---------------------------------------------------------------------------|
A|-6~-7~---------------------------------------------------------------------|
E|-------6~-7~---------------------------------------------------------------|

there. end it all after another chorus. 
            

comments powered by Disqus
↑ Back to top | Action Action Tabs for Photograph. Lyrics for acoustic guitar and electric guitar. Tablatures and chords are parodies/interpretations of the original songs. You may use it for private study, scholarship, research or language learning purposes only