» » »

Let's Never Go To Sleep Tabs (ver.1)

Artists:  A B C D E F G H I J K L M N O P Q R S T U V W X Y Z # 

Let's Never Go To Sleep Tabs (ver.1)

Action Action
Rating:
0/5 (0 votes)

Hard to play? Try these video lessons and learn fast.
                Action Action
Lets Never Go To Sleep
Guitar Tab
Standard Tuning


/ Slide Up


Intro

0:00
|-------|-----|-------|-----|---------|---------|------->
|-------|-----|-------|-----|---------|---------|------->
|-------|-----|-------|-----|---------|---------|------->
|-------|-----|----2--|--2--|---------|---------|------->
|----3--|--3--|3-3---3|3---3|----2----|2-----2--|--2---->
|5-5---5|5---5|-------|-----|0-0---0--|--0-0---0|0---0-->

0:07                                             0:13
|-------|-----|-------|-----|---------|---------|-------|
|-------|-----|-------|-----|---------|---------|-------|
|-------|-----|-------|-----|---------|---------|-------|
|-------|-----|----2--|--2--|---------|---------|-------| x1
|----3--|--3--|3-3---3|3---3|----2----|---------|-------|
|5-5---5|5---5|-------|-----|0-0---0--|---------|0-3-0--|


Verse One

0:14
|-------|-----|-------|-----|---------|---------|-------|
|-------|-----|-------|-----|---------|---------|-------|
|-------|-----|-------|-----|---------|---------|-------|
|-------|-----|----2--|--2--|---------|---------|-------| x4
|----3--|--3--|3-3---3|3---3|----2----|2-----2--|--2----|
|5-5---5|5---5|-------|-----|0-0---0--|--0-0---0|0---0--|


Chorus One

0:42
|-------------------------------------------------------------------|
|-------------------------------------------------------------------|
|----------------5555555555555555-----------------------------------|
|33333333333333335555555555555555555555555555555555555555555555/77--| x4
|33333333333333333333333333333333555555555555555555555555555555/77--|
|1111111111111111----------------333333333333333333333333333333/55--|


Pre Verse

1:10
|-------|-----|-------|-----|---------|---------|-------|
|-------|-----|-------|-----|---------|---------|-------|
|-------|-----|-------|-----|---------|---------|-------|
|-------|-----|----2--|--2--|---------|---------|-------| x1
|----3--|--3--|3-3---3|3---3|----2----|2-----2--|-------|
|5-5---5|5---5|-------|-----|0-0---0--|--0-0---0|0-3-0--|


Verse Two

1:17
|-------|-----|-------|-----|---------|---------|-------|
|-------|-----|-------|-----|---------|---------|-------|
|-------|-----|-------|-----|---------|---------|-------|
|-------|-----|----2--|--2--|---------|---------|-------| x4
|----3--|--3--|3-3---3|3---3|----2----|2-----2--|--2----|
|5-5---5|5---5|-------|-----|0-0---0--|--0-0---0|0---0--|


Chorus Two

1:44
|-------------------------------------------------------------------|
|-------------------------------------------------------------------|
|----------------5555555555555555-----------------------------------|
|33333333333333335555555555555555555555555555555555555555555555/77--| x4
|33333333333333333333333333333333555555555555555555555555555555/77--|
|1111111111111111----------------333333333333333333333333333333/55--|


Bridge Section

2:12
|-----------|-----------|--------|---------->
|------10---|------10---|-----8--|-----8---->
|---10----10|---10----10|---9---9|---9---9-->
|12---------|12---------|10------|10-------->
|-----------|-----------|--------|---------->
|-----------|-----------|--------|---------->

|----------|----------|----------|------------|
|-----12---|-----12---|-----12---|-----12-----|
|--12----12|--12----12|--12----12|--12----12--|
|9---------|9---------|9---------|9-----------| x4
|----------|----------|----------|------------|
|----------|----------|----------|------------|


Chorus Three

2:40
|-------------------------------------------------------------------|
|-------------------------------------------------------------------|
|----------------5555555555555555-----------------------------------|
|33333333333333335555555555555555555555555555555555555555555555/77--| x3
|33333333333333333333333333333333555555555555555555555555555555/77--|
|1111111111111111----------------333333333333333333333333333333/55--|

3:01                                                              3:08
|----------------------------------------------------------------|-------|
|----------------------------------------------------------------|-------|
|----------------5555555555555555--------------------------------|-------|
|3333333333333333555555555555555555555555555555555555555555555555|-------|x1 
|3333333333333333333333333333333355555555555555555555555555555555|----3--|
|1111111111111111----------------33333333333333333333333333333333|5-5---5|
            
Hard to play? Try these video lessons and learn fast. | Correct




comments powered by Disqus
↑ Back to top | Tablatures and chords are parodies/interpretations of the original songs. You may use it for private study, scholarship, research or language learning purposes only