» » »

Instructions On Building A Model Airplane Bass tabs (ver.1)

Artists:  A B C D E F G H I J K L M N O P Q R S T U V W X Y Z # 

Instructions On Building A Model Airplane Bass tabs (ver.1)

Action Action
Rating:
5/5 (1 vote)

Tabs too difficult? Try these video lessons and learn fast.
                -------------------------------------------------------------------------------
-------------------------------------------------------------------------------


Tuning: EADG standard

NO bass until 0.24

Pre-Chorus

G|----44----33----22----99---------|
D|---------------------------------|
A|-22----11----00----77------------| x2
E|---------------------------------|

G|--------------------|
D|--------------------|
A|--------------------|
E|-33333333-55555555--|

Chorus

G|-------|
D|-------|
A|-22----| x3 (miss out on forth time) then another 3
E|---2233|

Verse - don't come in until (0.59)

G|----------11-99----------|----------99-77----------|
D|----11-99-------11-99-11-|----99-77-------99-77-99-|
A|-99----------------------|-77----------------------|
E|-------------------------|-------------------------|

G|---------------------------------|
D|---------------------------------|
A|-99-9-99-9-99-99-77-7-77-77-7-77-| x2
E|---------------------------------|

PRE-CHORUS

CHORUS

Bridge

G|-----------------|
D|------------2~-0~|
A|-----------------|
E|-4~-3~-2~-0~-----|

Then Repeat Chorus until the end.

Ends on a single:

G|-------|
D|-------|
A|-22----|
E|---2233|
            
Tabs too difficult? Try these video lessons and learn fast.


comments powered by Disqus
↑ Back to top | Tablatures and chords are parodies/interpretations of the original songs. You may use it for private study, scholarship, research or language learning purposes only