» » »

Thoughtless Apologies Tabs (ver.1)

Artists:  A B C D E F G H I J K L M N O P Q R S T U V W X Y Z # 

Thoughtless Apologies Tabs (ver.1)

Across Five Aprils
Rating:
0/5 (0 votes)

Tabs too difficult? Try these video lessons and learn fast.
                (Intro)
first tab for a great song with a good meaning. it sounds great on an acoustic. its
easy once you get used to it. across five aprils is a fairly unknown band that deserves a
more credit than they get. im sure its accurate. let me know if you find a mistake.

standard tuning

E---------------------------------------------------3-----------------3-|
A--2-----------------2-----2h3-----------------3------------------------|
D-----0-----0-----0-------------0-----0-----0----------0-----0-----0----|
G--------0-----0--------0----------0-----0--------0-------0-----0-------|
B-----------------------------------------------------------------------|
e-----------------------------------------------------------------------|

E-----1-----------------1-----|
A-----------------------------|
D--------0-----0-----0--------|
G-----------0-----0--------0--|
B-----------------------------|
e-----------------------------| and just repeat for a while until the verse. the chords 
easy enough to figure out on your own.

good luck
            
Tabs too difficult? Try these video lessons and learn fast.




comments powered by Disqus
↑ Back to top | Tablatures and chords are parodies/interpretations of the original songs. You may use it for private study, scholarship, research or language learning purposes only