» » »

Hearts, Necks And Other Things That Break Bass tabs (ver.1)

Artists:  A B C D E F G H I J K L M N O P Q R S T U V W X Y Z # 

Hearts, Necks And Other Things That Break Bass tabs (ver.1)

Across Five Aprils
Rating:
0/5 (0 votes)

Hard to play? Try these video lessons and learn fast.
                Hearts, Necks And Other Things That Break – Across Five Aprils
Bass Tab – Thomas Hickson

I am a little bit rusty with my tabbing as this is my first posted. But this was tabbed
with Mike G as we play together. This tab isn't probably 100% but it is dam close and
sweet, you can trust Mikey G even though he's our drummer, he knows his guitar!!! I hope 
helps you bass players out there..

Tuning : DADG

Inrto
|----------|---------------------------|
|----------|---------------------------| Play second Bar 4 Times.
|--000-000-|--000-000------000-000-----|
|--000-000-|--000-000------000-000-----|
   ^^^ ^^^    ^^^ ^^^      ^^^ ^^^

Verse 1
|---------------------------------------------------------|
|---------------------------------------------------------| Play This 2
|--5-----3------1------0----------------------------------| Times
|-----------------------------5~----7------8--------------|

Rest while drums go and little one guitar riff...

|-----------------------------------------------------------------------|
|--5-5-5-5-5-5-5-5--3-3-3-3-3-3-3-3--0-0-0-0-0-0-0-0--1-1-1-1-1-1-1-1---|
|-----------------------------------------------------------------------|
|-----------------------------------------------------------------------|


|-----------------------------------------------------------------------| Play
|--5-5-5-5-5-5-5-5--7-7-7-7-7-7-7-7--3-3-3-3-3-3-3-3-3-3-3-3-3-3-3-3----| 2
|-----------------------------------------------------------------------| Times
|-----------------------------------------------------------------------|


|--10--8--7--5--| Little bit before Chours
|---------------|
|---------------|
|---------------|


Chorus

|------------------------------------x--|
|------------------------------------x--| Played Four Times
|----------5-5-555--6-6-666-8-8-888--x--|
|--55-555----------------------------x--|


Bridge after Chours

|--------------------------------------------------------------------------|
|--------------------------------------------------------------------------|
|--------------------------------------------------------------------------|
|-5-555-5-555-5-555-5-555--1-111-1-111-1-111-1-111--3-333-3-333-3-333-3-333|


BREAK DOWN 1
|------------------------|
|------------------------| Play This 8 Times.
|------------------------|
|--00-0-0--0-00-0-00000--|
|--00-0-0--0-00-0-00000--|
|--00-0-0--0-00-0-00000--|


BREAK DOWN 2 - ( 2:22 - 2:34) unusual timing but you'll get it

|------------------------|------------------------------------------|
|------------------------|------------------------------------------|
|--5-5-5-5-5-5-----------|--5-5-5-5-5--------------5-5--------------|
|---------------3h5/1p0--|-------------3h5/1p0----------3h5/1p0-----|

|--------------------------------------------------------------------|
|--------------------------------------------------------------------|
|--5-5--------------5-5-5-5-5-----------5-5-----------5-5------------|
|-------3h5/1p0----------------3h5/1p0-------3h5/1p0-------3h5/1p0---|

BREAK DOWN 2 - drums slow down (2:34 - 2:45)

|---------------------|
|---------------------| Play This Bar 4 times to end breakdown 2
|--5-5-5-5-5----------|
|------------3h5/1p0--|


Then Guitars Stop And Drums Play Along With Vocals


Breakdown 3

|---------------------------------|
|---------------------------------| Play this 2 times.
|--000-000--000-000---00-000------|
|--000-000--000-000---00-000------|
   ^^^ ^^^  ^^^ ^^^   ^^ ^^^


|----------------------------------------------| Norma jean
|----------------------------------------------| sounding
|--000-000---------000-000---------------------|part play
|--000-000---------000-000---------------------| 4 times.


Ending. . .

|---------------------------------|
|---------------------------------|
|---------------------------------|
|--8—8—8—8—8-8—8—8----------------|
            
Hard to play? Try these video lessons and learn fast. | Correct




comments powered by Disqus
↑ Back to top | Tablatures and chords are parodies/interpretations of the original songs. You may use it for private study, scholarship, research or language learning purposes only