>
 >
Car Wrecks And Plane Crashes

Car Wrecks And Plane Crashes Guitar Tabs

Across Five Aprils - Car Wrecks And Plane Crashes chords, tabs, tablatures, lyrics

Guitar lessons | Add/correct | Request | Top 50 tabs Artists:  A B C D E F G H I J K L M N O P Q R S T U V W X Y Z 0-9

Car Wrecks And Plane Crashes Guitar Tabs – Across Five Aprils

CD, Sheet music, Poster

Do you like Car Wrecks And Plane Crashes? Share with your friends now
Tabs
            
                                   INTRO
  Guitar #1
e|---------------------------------------------------------------------|
B|---------------------------------------------------------------------|
G|-------10---10-----10-----9---9-----9--------------------------------|
D|-----7----7----7--------5---5---5---------10---10-----10-----10------|
A|----------------------------------------8----8----8--------7----7----|
D|---0-------------0----0-----------0---8-------------8----7-----------|

e|----------------|
B|----------------|
G|----------------|
D|-----10---10----|
A|--------8-------|
D|---8------------|




  Guitar #2
e|---------------------------------------------|
B|---------------------------------------------|
G|---------------------------------------------|
D|---------------------------------------------|
A|---0~---7-7-7-7-7-7-7-7-8-8-8-8-8-8-8/-------|
D|---0~---7-7-7-7-7-7-7-7-8-8-8-8-8-8-8/-------|
PM        . . . . . . . . . . . . . . 
   
                              VERSE 
   Parts 1 & 3
e|-------------------------------------------------------------------------|
B|-------------------------------------------------------------------------|
G|----------------9-10-10-10-10-10-10-10-10--------------------------------|
D|----------------x-x--x--x--x--x--x--x--x---------------------------------|
A|---0-0-0-0-0-0--7/8--8--8--8--8--8--8--8--7-8-8-8-8-8-8-5-5-5-5-5-5------|
D|---0-0-0-0-0-0----------------------------7-8-8-8-8-8-8-5-5-5-5-5-5------|
PM     .                                        .           . 
 
  Part 2
e|-------------------------------------------------------------------------|
B|-------------------------------------------------------------------------|
G|----------------9-10-10-10-10-10-10-10-10--------------------------------|
D|----------------x-x--x--x--x--x--x--x--x---------------------------------|
A|---0-0-0-0-0-0--7/8--8--8--8--8--8--8--8--7-8-8-8-8-8-8-10-10-5-5-7------|
D|---0-0-0-0-0-0----------------------------7-8-8-8-8-8-8-10-10-5-5-7------|
PM     .                                        .            
  Part 4
e|----------------------------------------------------------------------------------|
B|----------------------------------------------------------------------------------|
G|----------------9-10-10-10-10-10-10-10-10-----------------------------------------|
D|----------------x-x--x--x--x--x--x--x--x------------------------------------------|
A|---0-0-0-0-0-0--7/8--8--8--8--8--8--8--8--7-8-8-8-8-8-8-10-10-10-10-10-10-10-10---|
D|---0-0-0-0-0-0----------------------------7-8-8-8-8-8-8-10-10-10-10-10-10-10-10---|
PM     .                                        .            
 
               INTERLUDE
  Guitar #1
e|----------------------------------------|
B|----------------------------------------| play 
G|----------------------------------------| continuously
D|----------------------------------------|
A|---0-0-0--0-0-0--0-0-0-0-0--0-0-0-0-0---|
D|---0-0-0--0-0-0--0-0-0-0-0--0-0-0-0-0---|
PM   . . .  . . .  . . . . .  . . . . .

  Guitar #2   
e|----------------------------------------------|
B|----------------------------------------------| play twice
G|---9--9/10--10/9--9/7---9--9-10--10/9--9/12---|
D|---x--x-x----x-x--x-x---x--x-x----x-x--x-x----|
A|---7--7/8----8/7--7/5---7--7/8----8/7--7/10---|
D|----------------------------------------------|

  Clean part

  Guitar #1
  
  Parts 1 & 3
e|------------------------------------------------------------------|
B|------------------------------------------------------------------|
G|--9-9-9-9-9-9-9/12-12-12-12-12-12/14-14-14-14-14-14-17-17-17-17---|
D|--x-x-x-x-x-x-x-x--x--x--x--x--x--x--x--x--x--x--x--x--x--x--x----|
A|--7-7-7-7-7-7-7/10-10-10-10-10-10/12-12-12-12-12-12/15-15-15-15---|
D|------------------------------------------------------------------|
  
  Part 2
e|------------------------------------------------------------|
B|------------------------------------------------------------|
G|--9-9-9-9-9-9-9/7-7-7-7-7-7/14-14-14-14-14-14-17-17-17-17---|
D|--x-x-x-x-x-x-x-x-x-x-x-x-x-x--x--x--x--x--x--x--x--x--x----|
A|--7-7-7-7-7-7-7/5-5-5-5-5-5/12-12-12-12-12-12/15-15-15-15---|
D|------------------------------------------------------------|
  
  Part 4
e|--------------------------------------------------|
B|--------------------------------------------------|
G|---17-17-17-19-19-19-19-19-19-21-21-21-21-21-21---|
D|---x--x--x--x--x--x--x--x--x--x--x--x--x--x--x----|
A|---15-15-15/17-17-17-17-17-17/19-19-19-19-19-19---|
D|--------------------------------------------------|

  Guitar #2
e|----------------------------------------|
B|----------------------------------------|
G|-------10---10-----10---10-------10-----|
D|-----7----7----7-----------7--------7---|
A|----------------------------------------|
D|---0-------------0----0------0-0--------|
 
e|----------------------------------------|
B|----------------------------------------|
G|----------------------------------------|
D|-------10---10-----10---10-------10-----|
A|-----8----8----8-----------8--------8---|
D|---8-------------8----8------8-8--------|

e|----------------------------------------|
B|----------------------------------------|
G|-------10---10-----9---10-------10------|
D|-----7----7----7-----------7--------7---|
A|----------------------------------------|
D|---0-------------0----0------0-0--------|
 
e|----------------------------------------|
B|----------------------------------------|
G|----------------------------------------|
D|-------10---10-----7---10-------10------|
A|-----8----8----8-----------8--------8---|
D|---8-------------8----8------8-8--------|

Next part is the clean part with distortion and Guitar #2 is all palm muted.

  Then,
e|------------------------------------------|
B|------------------------------------------| 
G|------------------AH----------------------|4x
D|------------------------------------------|
A|---0-0-0-0-0-0-0------0-0-0-0-0-0-0-0-0---|
D|---0-0-0-0-0-0-0-10b*-0-0-0-0-0-0-0-0-0---|
PM   . . . . . . .      . . . . . . . . .

e|------------------------------------------|
B|------------------------------------------|
G|------------------AH----------------------|alternate a,b,a,b.
D|------------------------------------------|
A|---0-0-0-0-0-0-0-10b*-0-0-0-0-0-0-0-0-0---|
D|---0-0-0-0-0-0-0------0-0-0-0-0-0-0-0-0---|
PM   . . . . . . .      . . . . . . . . .


  Guitar #1
e|---------------|
B|---------------|
G|---------------|repeat a bunch
D|---------------|
A|---0-0-0-0-----|
D|---0-0-0-0-----|
PM     .
  Guitar #2
e|----------------------------|
B|--------13---------13-------|
G|-----10----10---10----10----|
D|----------------------------|
A|----------------------------|
D|---0----------0-------------|

Play the verse then play this slower...

e|-----------------------------------------------------------------------------------|
B|-----------------------------------------------------------------------------------|
G|----------------9-10-10-10-10-10-10-10-10------------------------------------------|
D|----------------x-x--x--x--x--x--x--x--x-------------------------------------------|
A|---0-0-0-0-0-0--7/8--8--8--8--8--8--8--8--7-8-8-8-8-8-8-10-10-10-10-10-10--12------|
D|---0-0-0-0-0-0----------------------------7-8-8-8-8-8-8-10-10-10-10-10-10-----10---|
PM     .                                        .         .  .  .  .  .  .   
                 
                   OUTRO (finally...)
e|-------------------------------------------|
B|-------------------------------------------|play a couple
G|---------10-9--9/7----------------AH-------|of times
D|----------x-x--x-x-------------------------|
A|---0-0-0--8/7--7/5--0-0-0-0-0--*8p7-5b*----|
D|---0-0-0------------0-0-0-0-0--------------|
PM   . . .            . . . . .
  
  Guitar #1
e|----------------------|
B|----------------------|
G|----------------------|
D|----------------------|
A|---0-0-0--0-0-0-0-0---|
D|---0-0-0--0-0-0-0-0---|
PM   . . .  . . . . .
  
  Guitar #2
e|----------------------------|
B|--------13---------13-------|
G|-----10----10---10----10----|Then PM till end.
D|----------------------------|
A|----------------------------|
D|---0----------0-------------|





Comments


Popular Across Five Aprils tabs & chords
Hearts, Necks And Other Things That Break Bass Tabs
A Year From Now Tabs
A Year From Now 1 Tabs
A Year From Now 2 Tabs
Blue-Eyed Suicide Tabs
Car Wrecks And Plane Crashes Intro Tabs
Darkest Road Tabs
Hearts, Necks And Other Things That Break Tabs
Miss Mistress Tabs
Through The Pane Tabs


Song lyrics



↑ Back to top | Tablatures and chords are parodies/interpretations of the original songs. You may use it for private study, scholarship, research or language learning purposes only
© 2014 AZChords.com Contact us | Privacy policy | DMCA | Add/correct tabs | Request tabs | Top 50 tabs