» » »

A Year From Now Tabs (ver.3)

Artists:  A B C D E F G H I J K L M N O P Q R S T U V W X Y Z # 

A Year From Now Tabs (ver.3)

Across Five Aprils
Rating:
0/5 (0 votes)

Tabs too difficult? Try these video lessons and learn fast.
                A Year from now 
Across Five Aprils

‘jimmypickersg’ got some of this right but not much of it,
I’m sure this isn’t 100% correct, but I know its purrttty close, don’t mean to 
hate on the other dude's tab.

_______________________________________________________|
Standard tuning.
~= Hold Note.
_______________________________________________________|



Introduction:

Guitar 1: This is in Sync with Guitar 2.
____________________________________________________
E|-------|-------|-------|-------|
B|-------|-------|-------|-------|
G|-0~----|-0~----|-0~----|-0~----|X2
D|-9~----|-7~----|-9~----|-7~----|
A|-10~---|-9~----|-7~----|-5~----|
E|-------|-------|-------|-------|

Guitar Two
____________________________________________________
E|---------------------|---------------------|
B|---------------------|---------------------|
G|------------0--------|------------0--------|
D|-------9------9----9-|-------9------9----9-|
A|-10-10---10-----10---|-10-10---10-----10---|
E|---------------------|---------------------|

E|---------------------|---------------------|
B|---------------------|---------------------|
G|---------0-----------|----------0----------|
D|-----7-----7---7-----|-----7-----7---7-----|
A|-9-9---9-----9-------|-9-9---9-----9-------|
E|---------------------|---------------------|

E|---------------------|---------------------|
B|---------------------|---------------------|
G|---------0-----------|----------0----------|
D|-----9-----9---9-----|-----9------9---9----|
A|-7-7---7-----7-------|-7-7---7------7------|
E|---------------------|---------------------|

E|---------------------|---------------------|
B|---------------------|---------------------|
G|---------0-----------|----------0----------|
D|-----9-----9---9-----|-----9------9---9----|
A|-7-7---7-----7-------|-7-7---7------7------|
E|---------------------|---------------------|

E|---------------------|---------------------|
B|---------------------|---------------------|
G|---------0-----------|----------0----------|
D|-----7-----7---7-----|-----7------7---7----|
A|-5-5---5-----5-------|-5-5---5------5------|
E|---------------------|---------------------|

Do all this twice.


Guitar One AND Two.
____________________________________________________
E|---------------------|---------------------|
B|---------------------|---------------------|
G|------------0--------|------------0--------|
D|-------9------9----9-|-------9------9----9-|
A|-10-10---10-----10---|-10-10---10-----10---|
E|---------------------|---------------------|

E|---------------------|---------------------|
B|---------------------|---------------------|
G|---------0-----------|----------0----------|
D|-----7-----7---7-----|-----7-----7---7-----|
A|-9-9---9-----9-------|-9-9---9-----9-------|
E|---------------------|---------------------|

E|---------------------|---------------------|
B|---------------------|---------------------|
G|---------0-----------|----------0----------|
D|-----9-----9---9-----|-----9------9---9----|
A|-7-7---7-----7-------|-7-7---7------7------|
E|---------------------|---------------------|

E|---------------------|---------------------|
B|---------------------|---------------------|
G|---------0-----------|----------0----------|
D|-----9-----9---9-----|-----9------9---9----|
A|-7-7---7-----7-------|-7-7---7------7------|
E|---------------------|---------------------|

E|---------------------|---------------------|
B|---------------------|---------------------|
G|---------0-----------|----------0----------|
D|-----7-----7---7-----|-----7------7---7----|
A|-5-5---5-----5-------|-5-5---5------5------|
E|---------------------|---------------------|

Play this twice.

The rest is coming later. Its currently 4:00 AM and I'm exhausted.
            
Tabs too difficult? Try these video lessons and learn fast.


comments powered by Disqus
↑ Back to top | Tablatures and chords are parodies/interpretations of the original songs. You may use it for private study, scholarship, research or language learning purposes only