» » »

Across Five Aprils, A Year From Now Tabs (ver.2)

Artists:  A B C D E F G H I J K L M N O P Q R S T U V W X Y Z # 

A Year From Now Tabs (ver.2)

Across Five Aprils Tabs
 Rating:
4/5 (7 votes)
A Year From Now lessons Tabs too difficult? Try these video lessons and learn fast
1
                Across Five Aprils
A Year From Now
Guitar Tab
Drop D Tuning - DADGBE

/ Slide
H Hold Note
x Muted String


Intro

Rhythm Guitar
0:00
|--------|-------|-------|-------|
|--------|-------|-------|-------|
|11------|7------|9------|7------|
|12------|7------|9------|7------| x2
|10------|9------|7------|5------|
|--------|-------|-------|-------|

Lead Guitar
0:00
|-------------------|-------------------|---------------|-----------------|
|-------------------|-------------------|---------------|-----------------|
|-----------0-------|-----------0-------|--------0------|--------0--------|
|------9------9----9|------9------9----9|----7-----7---7|----7-----7---7--| x4
|10-10---10-----10--|10-10---10-----10--|9-9---9-----9--|9-9---9-----9----|
|-------------------|-------------------|---------------|-----------------|

********************************************************************************
Or Alternatively Play This...

Lead Guitar
0:00
|-------------------|-------------------|---------------|----------------->
|-------------------|-------------------|---------------|----------------->
|-----------0-------|-----------0-------|--------0------|--------0-------->
|------9------9----9|------9------9----9|----7-----7---7|----7-----7---7-->
|10-10---10-----10--|10-10---10-----10--|9-9---9-----9--|9-9---9-----9---->
|-------------------|-------------------|---------------|----------------->

0:06
|---------------|---------------|---------------|-----------------|
|---------------|---------------|---------------|-----------------|
|--------0------|--------0------|--------0------|--------0--------|
|----9-----9---9|----9-----9---9|----7-----7---7|----7-----7---7--| x2
|7-7---7-----7--|7-7---7-----7--|5-5---5-----5--|5-5---5-----5----|
|---------------|---------------|---------------|-----------------|

This Is Not What Is Played In The Song
But It Does Sound Way Better Playing
This,If You're Playing The Lead On You're Own.
*********************************************************************************


Verse One

Both Guitars
0:24
|------------------|------------------|---------------|-----------------|
|-----------0------|-----------0------|--------0------|--------0--------|
|---------------0--|---------------0--|------------0--|------------0----|
|------9------9---9|------9------9---9|----7-----7---7|----7-----7---7--| x3
|10-10---10--------|10-10---10--------|9-9---9--------|9-9---9----------|
|------------------|------------------|---------------|-----------------|

0:42
|----------------------------------------|---------------|-----------------|
|---------------------------------0------|--------0------|-----------------|
|-------------------------------------0--|------------0--|-----------------|
|------9-------------9-------9------9---9|----7-----7---7|----7---7---7----| x1
|10-10---10-10-10-10---10-10---10--------|9-9---9--------|9-9---9---9---9--|
|----------------------------------------|---------------|-----------------|


Chorus

Rhythm Guitar
0:48
|---------------------------------|------------------------------------|
|---------------------------------|------------------------------------|
|7-777-7-6-66-6666-7-777-77-777777|7-777-7-7-77-7777-6-66-6-666777777--|
|0-000-0-0-00-0000-0-000-00-000000|5-555-5-5-55-5555-5-55-5-555555555--| x1
|0-000-0-0-00-0000-0-000-00-000000|5-555-5-5-55-5555-5-55-5-555555555--|
|0-000-0-0-00-0000-0-000-00-000000|5-555-5-5-55-5555-5-55-5-555555555--|

1:00
|----------------------------------|------------------------------------|
|----------------------------------|------------------------------------|
|7-777-7-6-66-6666-7-7-777777777777|7-777-7-7-77-7777-6-66-6-666777777--|
|0-000-0-0-00-0000-0-0/777755554545|7-777-7-7-77-7777-7-77-7-777777777--| x1
|0-000-0-0-00-0000-0-0-000000000000|5-555-5-5-55-5555-5-55-5-555555555--|
|0-000-0-0-00-0000-0-0-000000000000|5-555-5-5-55-5555-5-55-5-555555555--|

The Exact Ammount Of Strums Are Not Perfect.
But Just Listen Out For The Changes.


Verse Two

Lead Guitar
1:12
|---------------|---------------|---------------|----------------->
|---------------|---------------|---------------|----------------->
|----7---7-----7|----7---7-----7|----7---7-----7|----7---7-----7-->
|--7---7-----7--|--7---7-----7--|--7---7-----7--|--7---7-----7---->
|5---------5----|5---------5----|9---------9----|9---------9------>
|---------------|---------------|---------------|----------------->

1:18
|-----------------------|-------------------------|
|-----------------------|-------------------------|
|------11----11-------11|------11----11-------11--|
|---12----12-------12---|---12----12-------12-----| x2
|10-------------10------|10-------------10--------|
|-----------------------|-------------------------|


Break

1:35
|----------|
|7H--------|
|7H--------|
|5--4-5-7--| x4
|----------|
|----------|


Bridge Section

Rhythm Guitar
1:48
|----------------------------------|------------------------------------>
|----------------------------------|------------------------------------>
|11-11111111-1111-11111111-11111111|12-12121212-1212-12121212-12121212-->
|12-12121212-1212-12121212-12121212|12-12121212-1212-12121212-12121212-->
|10-10101010-1010-10101010-10101010|-x--x-x-x-x--x-x--x-x-x-x--x-x-x-x-->
|----------------------------------|10-10101010-1010-10101010-10101010-->

|---------------------------------|---------------------|
|---------------------------------|---------------------|
|12-1212-12-12121212-1212-12121212|7-7777-77-7777-7777--|
|12-1212-12-12121212-1212-12121212|7-7777-77-7777-7777--| x2
|-x--x-x--x--x-x-x-x--x-x--x-x-x-x|5-5555-55-5555-5555--|
|-9--9-9--9--9-9-9-9--9-9--9-9-9-9|---------------------|

Lead Guitar
1:57
|-----------------|
|-----------------|
|-----------------|
|4-5-4-5-7-5-4-5--| x2
|-----------------|
|-----------------|

2:09
|-----------------|
|-----------------|
|-----------------|
|4-5-4-5-7-5-4-5--| x2
|-----------------|
|-----------------|


Outro

2:12           2:21
|----------    |-------------|
|7H--------    |7------------|
|7H--------    |7------------|
|5--4-5-7-- x3 |--4-5-7-5-0--| x1
|----------    |-------------|
|----------    |-------------|
            
Submit corrections

comments powered by Disqus
↑ Back to top | Across Five Aprils Tabs for A Year From Now. Lyrics for acoustic guitar and electric guitar. 1 Tablatures and chords are parodies/interpretations of the original songs. You may use it for private study, scholarship, research or language learning purposes only