» » »

Acoustic Alchemy, The Beautiful Game Bass tabs (ver.1)

Artists:  A B C D E F G H I J K L M N O P Q R S T U V W X Y Z # 

The Beautiful Game Bass tabs (ver.1)

Acoustic Alchemy Tabs
 Rating:
4/5 (4 votes)
The Beautiful Game lessons Tabs too difficult? Try these video lessons and learn fast
1
                Riff 1:
g:-------------------------------|
d:-------------------------------|
a:-------------------------------|
e:6h8-6h8-8-6-6--4-4--4-4-6h8-6-6|
b:-------------------------------|


Riff 2:
g:-------------------------------------------------------------------|
d:-------------------------------------------------------------------|
a:-------------------------------------------------------------------|
e:6h8-6h8-8-6-6--4-4--4-4-6h8-6-6--1-1--1-1--1-3-3--4-4--4-4--6h8-6-6|
b:-------------------------------------------------------------------|

this is really just a freaking long riff its just in different
Riff 3:sections so it can fit.
g:----------------------------------------------------------|
d:----------------------------------------------------------|
a:----4---2-2----------------------------------4-4-4-4------|
e:--4---4-----5-5--5---5-4-4--2-2--2-2--2-4-4----------4----|
b:2------------------5-----------------------------------2-2|


g:---------------------------------------------------------|
d:---------------------------------------------------------|
a:------------------------------5-5-5-5-5-5-5-2-2-2-2-2-2-2|
e:5-5--5---5-4-4--2-2-2-2-2-4-4----------------------------|
b:-------5-------------------------------------------------|


g:---------------------------------------------------------|
d:---------------------------------------------------------|
a:3-3-3---3-2-2-----------------3-3-3---3-2-2--------------|
e:------3--------5-5--5---5-3-3-------3--------------------|
b:----------------------5---------------------5-5-5-5-5-5-5|


g:----------------------------------------------------------|
d:----------------------------------------------------------|
a:6-6--6---6-5-5-4-4--4---4-3-3-----------------------------|
e:-------6--------------4-----------------------------------|
b:------------------------------3-3-3-3-3-3-3--5-5-5-5-5-5-5|


Riff 4:
g:----------------------------------------|
d:----------------------------------------|
a:3-3--------3----------3-----------------|
e:----3--4-4-----1-1-3-------3-3-3-3-3-3-3|
b:----------------------------------------|
            
Submit corrections

comments powered by Disqus
↑ Back to top | Acoustic Alchemy Bass for The Beautiful Game. Lyrics for acoustic guitar and electric guitar. 1 Tablatures and chords are parodies/interpretations of the original songs. You may use it for private study, scholarship, research or language learning purposes only