» » »

Acoustic Alchemy, Nouveau Tango Tabs (ver.1)

Artists:  A B C D E F G H I J K L M N O P Q R S T U V W X Y Z # 

Nouveau Tango Tabs (ver.1)

Acoustic Alchemy Tabs
 Rating:
4/5 (4 votes)
Nouveau Tango lessons Tabs too difficult? Try these video lessons and learn fast
1
                
Here is the melody...

-|---------------|-----------------|-4---------|-4-6-6p7-|-6-4-3h4p3h4p3-|----|
-|---------------|-4h5p4-----------|---7-4-----|---------|---------------|----|
-|-----3-4-6-6/8-|-------6-4-------|-------4-6-|---------|---------------|----|
-|---6-----------|-----------6/9\6-|-----------|---------|---------------|----|
-|-6-------------|-----------------|-----------|---------|---------------|----|
-|---------------|-----------------|-----------|---------|---------------|----|

-|--------8-9-9/11-|-11-9----------|---6-7-6---------|-----------------|------|
-|---9-11----------|------11-7-7/9-|-9-------9-7-9-9-|-4-5-7-5-4---5-5-|------|
-|-8---------------|---------------|-----------------|-----------6-----|------|
-|-----------------|---------------|-----------------|-----------------|------|
-|-----------------|---------------|-----------------|-----------------|------|
-|-----------------|---------------|-----------------|-----------------|------|

-|---------------------|------------------------------------------------------|
-|-4-5-4---------------|------------------------------------------------------|
-|-------6-4-3h4p3h4p3-|------------------------------------------------------|
-|---------------------|------------------------------------------------------|
-|---------------------|------------------------------------------------------|
-|---------------------|------------------------------------------------------|

-|-11-11-9-9-9---11-11-11-9-9-9-|-9-9-7-7-7---9-9-9-7-7-7-|-------------------|
-|------------------------------|-------------------------|-------------------|
-|------------------------------|-------------------------|-------------------|
-|------------------------------|-------------------------|-------------------|
-|------------------------------|-------------------------|-------------------|
-|------------------------------|-------------------------|-------------------|

-|-7-7-6-6-6---7-7-7-6-6-6-|-6-6-4-4-4---6-6-6-4-4-4-|------------------------|
-|-------------------------|-------------------------|------------------------|
-|-------------------------|-------------------------|------------------------|
-|-------------------------|-------------------------|------------------------|
-|-------------------------|-------------------------|------------------------|
-|-------------------------|-------------------------|------------------------|

-|-11-11-9-9-9---11-11-11-9-9-9-|-9-9-7-7-7---9-9-9-7-7-7-|-------------------|
-|------------------------------|-------------------------|-------------------|
-|------------------------------|-------------------------|-------------------|
-|------------------------------|-------------------------|-------------------|
-|------------------------------|-------------------------|-------------------|
-|------------------------------|-------------------------|-------------------|

-|-7-7-6-6-6---7-7-7-6-6-|-4--3--6-4-|----------------------------------------|
-|-----------------------|-----------|----------------------------------------|
-|-----------------------|-----------|----------------------------------------|
-|-----------------------|-----------|----------------------------------------|
-|-----------------------|-----------|----------------------------------------|
-|-----------------------|-----------|----------------------------------------|
            
Submit corrections

comments powered by Disqus
↑ Back to top | Acoustic Alchemy Tabs for Nouveau Tango. Lyrics for acoustic guitar and electric guitar. 1 Tablatures and chords are parodies/interpretations of the original songs. You may use it for private study, scholarship, research or language learning purposes only