» » »

Acoustic Alchemy, Milo Tabs (ver.1)

Artists:  A B C D E F G H I J K L M N O P Q R S T U V W X Y Z # 

Milo Tabs (ver.1)

Acoustic Alchemy Tabs
 Rating:
4/5 (4 votes)
Milo lessons Tabs too difficult? Try these video lessons and learn fast
                
Here is the basic melody (in the key of Db)...

-|------|-----|------------------|-------|-----------|------------------------|
-|------|-9---|------------------|-------|-----------|------------------------|
-|-8/10-|---8-|---5-6-8-8/10-8---|-6-5---|-----6-----|------------------------|
-|------|-----|-8--------------8-|-----6-|-------6/8-|------------------------|
-|------|-----|------------------|-------|-8-8-------|------------------------|
-|------|-----|------------------|-------|-----------|------------------------|

-|------------------|-------------------|-------|-------|-------|-------------|
-|-------9----------|-------------------|-------|-------|-------|-------------|
-|-10-10---8/10\8\6-|---5-6-8-8/10\8/10-|-5-6-8-|-----5-|-------|-------------|
-|------------------|-8-----------------|-------|-6-8---|-8-6-8-|-------------|
-|------------------|-------------------|-------|-------|-------|-------------|
-|------------------|-------------------|-------|-------|-------|-------------|

-|---------------------------------|---------|-----|--------------------------|
-|--------------9------------------|---------|-----|--------------------------|
-|-----6-8-8/10---10-8---8/10---5--|-6-5-----|-----|--------------------------|
-|-8-8-----------------------------|-----6---|-6/8-|--------------------------|
-|---------------------------------|-------8-|-----|--------------------------|
-|---------------------------------|---------|-----|--------------------------|

-|---------------------------|-6-6-|------------------------------------------|
-|--------------9------------|-6-6-|------------------------------------------|
-|-----6-8-8/10---10-8---6---|-----|------------------------------------------|
-|-8-8---------------------8-|-----|------------------------------------------|
-|---------------------------|-----|------------------------------------------|
-|---------------------------|-----|------------------------------------------|
            
Submit corrections

comments powered by Disqus
↑ Back to top | Acoustic Alchemy Tabs for Milo. Lyrics for acoustic guitar and electric guitar. Tablatures and chords are parodies/interpretations of the original songs. You may use it for private study, scholarship, research or language learning purposes only