» » »

Acoustic Alchemy, Lazeez Tabs (ver.1)

Artists:  A B C D E F G H I J K L M N O P Q R S T U V W X Y Z # 

Lazeez Tabs (ver.1)

Acoustic Alchemy Tabs
Rating:
0/5 (0 votes)
Hard to play? Try these video lessons and learn fast.
                
Intro
        (over the Chord)
e|-2-------------------------------------------------------|
B|-3-------------------------------------------------------|
G|-4-------7-----6-----------------------------------------|
D|-4------9-9---7-7----------------------------------------|
A|-2-----9-----9-------------------------------------------|
E|---------------------------------------------------------|


Verse 1 :39
e|-------------------------------------10r9------------------|
B|-7h8r7-7------6----10-8-7-7-5s7-7--------7-7-5s7-7---------|
G|------9--9-7-6-------------------------------------7-9s11--|
D|-----------------------------------------------------------|
A|-----------------------------------------------------------|
E|-----------------------------------------------------------|

e|-----------------------------------------------------------------|
B|-------5-7-8-7-7h87-5-7------------------------------------------|
G|-4-6-7--------------------------4-6-7-6-6h7r6-4---4-6-6s7-6-7-7s9|
D|---------------------------4-5-7---------------------------------|
A|-----------------------------------------------------------------|
E|-----------------------------------------------------------------|

                             1:02 verse 2 (strum)
e|---------------------|    |-9---10--12--14------------------------|
B|-7-7--10-10--10-10---|    |-10--12--14--15------------------------|
G|-7-7--9--9---11-11---|    |---------------------------------------|
D|---------------------|    |---------------------------------------|
A|---------------------|    |---------------------------------------|
E|---------------------|    |---------------------------------------|

1:10 random

e|-7--------------------------------------------------------|
B|---10-8-7h8r7--7-8s10-10---8-8-10-10s12-------------------|
G|--------------9------------9------------------------------|
D|----------------------------------------------------------|
A|----------------------------------------------------------|
E|----------------------------------------------------------|

1:16 - Repeat Verse 1

1:42 - repeat verse 2

1:50 - Verse 3, repeat twice

-g minor(10), g flat minor(9), e minor(7), d minor(5),c minor(3),bminor(2) -


Random - 2:00


e|----------------------------------------------------------------------|
B|-----------------------------------------------------------10-10s12-12|
G|-9r7r6-777r6-6h7r6-6h778--4-6-7--6-7-9--7-9-9s11-11---11-12-----------|
D|----------------------------------------------------------------------|
A|----------------------------------------------------------------------|
E|----------------------------------------------------------------------|


e|------------------------------------------------------------------|
B|-----------------------7-------------------------7s8s7------------|
G|12-11-9--11-9-7--9-7-6--7r6-4--------4-6s7--7-9-------------------|
D|--------------------------------4-4-5-----------------------------|
A|------------------------------------------------------------------|
E|------------------------------------------------------------------|

2:30
e|------------------------------------------------------------------------|
B|---7-7s8------7-8s10--8-7-5--5-3-2------8-7-------7---------------------|
G|7-9-------7-9--------------------------------9-7----9-7-6---------------|
D|------------------------------------------------------------------------|
A|------------------------------------------------------------------------|
E|------------------------------------------------------------------------|

2:43 -3:18 random notes in B aeolian

3:18-3:47 piano solo

3:48 muted strumming on B minor

4:01 - Verse 1

4:26 Verse 2

4:34  Verse 3, 4x
            

comments powered by Disqus
↑ Back to top | Acoustic Alchemy Tabs for Lazeez. Lyrics for acoustic guitar and electric guitar. Tablatures and chords are parodies/interpretations of the original songs. You may use it for private study, scholarship, research or language learning purposes only