» » »

Alchemist Tabs (ver.1)

Artists:  A B C D E F G H I J K L M N O P Q R S T U V W X Y Z # 

Alchemist Tabs (ver.1)

Acoustic Alchemy
Rating:
5/5 (5 votes)

Tabs too difficult? Try these video lessons and learn fast.
                Acoustic Alchemy- The Alchemist

- Yet another tab from Acoustic Alchemy. I have to say, this band sure has helped
train my ears as I was starting out in playing guitar!

- You may think that lots of the parts here are just copied then pasted over and over
again... well, think again! You may notice, if you listen carefully, subtle differences
(may it be slides changed to hammer-ons, or certain changed patterns, etc.) in every
part. Heck, I only noticed these minor changes recently, as I was rewriting this old
tab of mine. I may have missed some, but I’m content with what I’ve tabbed. Still,
you’re free to e-mail me, regarding this subject matter.

- Well, enjoy!

Intro: 00:00 – 00:16.
======
e|---------------------------------------------------------------------|
B|-10-9-7--------------------------------------------------------------|
G|--------9-8-6--------6---4~-6~-4~-6~-4-2--4~-6~-4~-6~-4--2-----------|
D|--------------9/7--6---6-4~-6~-4~-6~-4-2--4~-6~-4~-6~-4--2-----------|
A|---------------------------------------------------------------------|
E|---------------------------------------------------------------------|

e|---------------------------------------------------------------------|
B|-10-9-7--------------------------------------------------------------|
G|--------9-8-6-----6-4~-6~-4~-6~-4-2--4~-6~-4~-6~-4--2----------------|
D|----------------6---4~-6~-4~-6~-4-2--4~-6~-4~-6~-4--2----------------|
A|---------------------------------------------------------------------|
E|---------------------------------------------------------------------|

1st Part: 00:17 – 00:48.
=========
e|----------------------------------2/4-2--7~-5~-4~-2-0--5~-7h9~-7~-|
B|-10-9-7----------------------4~-5---------------------------------|
G|--------9-8-6-----6-4~-2~-4~--------------------------------------|
D|----------------6---4~--------------------------------------------|
A|------------------------------------------------------------------|
E|------------------------------------------------------------------|

e|---------------------------------------------------------------------|
B|7~-7--9--9/10~-9h10p9p8---7------------------------------------------|
G|-----------------------9---------------------------------------------|
D|---------------------------------------------------------------------|
A|---------------------------------------------------------------------|
E|---------------------------------------------------------------------|

e|-7--9/11~11~-12~-11~-7/9-----------11~-12~-11~-7/9-----------|
B|----------------------------7~-9-7--------------------7~—9-7-|
G|--------------------------9-------------------------9--------|
D|-------------------------------------------------------------|
A|-------------------------------------------------------------|
E|-------------------------------------------------------------|

e|-----------------7---------------------------------------------------|
B|9---7-9---7-9-10---10-9-7--------------------------------------------|
G|--9-----9-----------------------6-4~-6~-4~-6~-4-2--4~-6~-4~-6~-4-2---|
D|--------------------------9-7-6---4~-6~-4~-6~-4-2--4~-6~-4~-6~-4-2---|
A|---------------------------------------------------------------------|
E|---------------------------------------------------------------------|

2nd Part: 00:48 – 01:20.
=========
e|----------------------------------2/4-2--7~-5~-4~-2-0--5~-7h9~-7~-|
B|-10-9-7----------------------4~-5---------------------------------|
G|--------9-8-6-----6-4~-2~-4~--------------------------------------|
D|----------------6---4~--------------------------------------------|
A|------------------------------------------------------------------|
E|------------------------------------------------------------------|

e|---------------------------------------------------------------------|
B|7~-7--9--9/10~-9h10p9p8---7------------------------------------------|
G|-----------------------9---------------------------------------------|
D|---------------------------------------------------------------------|
A|---------------------------------------------------------------------|
E|---------------------------------------------------------------------|

e|-7--9/11~11~-12~-11~-7/9-----------11~-12~-11~-11p9------------|
B|----------------------------7~-9-7-----------------12---7~—9-7-|
G|--------------------------9---------------------------9--------|
D|---------------------------------------------------------------|
A|---------------------------------------------------------------|
E|---------------------------------------------------------------|

e|-----------------7---------------------------------------------------|
B|9---7-9---7-9-10---10-9-7--------------------------------------------|
G|--9-----9-----------------------6-4~-6~-4~-6~-4-2--4~-6~-4~-6~-4-2---|
D|--------------------------9-7-6---4~-6~-4~-6~-4-2--4~-6~-4~-6~-4-2---|
A|---------------------------------------------------------------------|
E|---------------------------------------------------------------------|

3rd Part: 01:20 – 01:53.
=========
e|---------------------------------------------------------------------|
B|-10-9-7--------------------------------------------------------------|
G|--------9-8-6-----6-6~-6~-6~-6~-6-6--6~-6~-6~-6~-6-6-----------------|
D|----------------6---6~-6~-6~-6~-6-6--6~-6~-6~-6~-6-6-----------------|
A|---------------------------------------------------------------------|
E|---------------------------------------------------------------------|

e|--------7/9-7-7~---5-4h5p4--------------------------------------------|
B|-5-7-9-----------5---------7-5-5~-7/9~-7-7~---------4----5~---7-6h7p6-|
G|---------------------------------------------4-5-6~----4----4---------|
D|----------------------------------------------------------------------|
A|----------------------------------------------------------------------|
E|----------------------------------------------------------------------|

e|---------------------------------------------------------------------|
B|---------------------------------------------------------------------|
G|-6-4~-2~-2-1-0~------------------------------------------------------|
D|---------------------------------------------------------------------|
A|---------------------------------------------------------------------|
E|---------------------------------------------------------------------|

- Do this twice.

4th Part: 01:54 – 02:33.
=========
e|--------------------------------9-7~-----------------------7-9~/11-9~-|
B|-7-5-4~~-4h5p4p3-4~~---4-5-7~/9------5-4~~-------------7-9------------|
G|---------------------4-------------------------4-4/6-8----------------|
D|-------------------------------------------4-6------------------------|
A|----------------------------------------------------------------------|
E|----------------------------------------------------------------------|

e|---11~------------12---12--12p11--------------------------------------|
B|-9~---9-9-9~--7/9----9-----------12-----------------------------------|
G|------------------------------------11/9-7----------------------------|
D|-------------------------------------------9~~-9-11-9~9~--------------|
A|----------------------------------------------------------------------|
E|----------------------------------------------------------------------|

e|--------7/9-7-7~---5-4h5p4--------------------------------------------|
B|-5-7-9-----------5---------7-5-5~-7/9~-7-7~---------4----5~---7-6h7p6-|
G|---------------------------------------------4-5-6~----4----4---------|
D|----------------------------------------------------------------------|
A|----------------------------------------------------------------------|
E|----------------------------------------------------------------------|

e|---------------------------------------------------------------------|
B|---------------------------------------------------------------------|
G|-6-4~-2~-2-1-0~------------------------------------------------------|
D|---------------------------------------------------------------------|
A|---------------------------------------------------------------------|
E|---------------------------------------------------------------------|

5th Part: 02:34 – 02:46.
=========
e|12-10-9~~-11h12p11p10-11~--------------------------------------------|
B|--------------------------------------------6p4-7p5-7/9~-7-7~--------|
G|---------------------------8h9p8p7-8~~--6p4--------------------------|
D|---------------------------------------------------------------------|
A|---------------------------------------------------------------------|
E|---------------------------------------------------------------------|

e|-----7-9~/11~--------------------------------------------------------|
B|-7-9----------12~12~-------------------------------------------------|
G|---------------------------------------------------------------------|
D|---------------------------------------------------------------------|
A|---------------------------------------------------------------------|
E|---------------------------------------------------------------------|

6th Part: 02:47 – 03:54.
=========
e|----------------------------------2h4-2--7~-5~-4~-2-0--5~-7h9~-7~-|
B|-10-9-7----------------------4~-5---------------------------------|
G|--------9-8-6-----6-4~-2~-4~--------------------------------------|
D|----------------6---4~--------------------------------------------|
A|------------------------------------------------------------------|
E|------------------------------------------------------------------|

e|---------------------------------------------------------------------|
B|7~-7--7/10~10-9h10p9p8---7-------------------------------------------|
G|-----------------------9---------------------------------------------|
D|---------------------------------------------------------------------|
A|---------------------------------------------------------------------|
E|---------------------------------------------------------------------|

e|-7--9/11~11~-12~-11~-7h9-----------11~-12~-11~-11p9------------|
B|----------------------------7~-9-7-----------------12---7~—9-7-|
G|--------------------------9---------------------------9--------|
D|---------------------------------------------------------------|
A|---------------------------------------------------------------|
E|---------------------------------------------------------------|

e|-----------------7----------------|
B|9---7-9---7-9-10---10-9-7---------|
G|--9-----9-----------------------6-|
D|--------------------------9-7-6---|
A|----------------------------------|
E|----------------------------------|

e|-------------2/4-2--7~-5~-4~-2-0--5~-7h9~-7~--------------------------|
B|---------4~-5--------------------------------7~-7-9--9/10~-9h10p9p8-7-|
G|4~-2~-4~-----------------------------------------------------------9--|
D|4~--------------------------------------------------------------------|
A|----------------------------------------------------------------------|
E|----------------------------------------------------------------------|

e|-7--9/11~11~-12~-11~-7h9-----------11~-12~-11~-11p9------------|
B|----------------------------7~-9-7-----------------12---7~—9-7-|
G|--------------------------9---------------------------9--------|
D|---------------------------------------------------------------|
A|---------------------------------------------------------------|
E|---------------------------------------------------------------|

e|-----------------7-------------------------------------------------|
B|9---7-9---7-9-10---10-9-7---------------------7--9--9---7-9---7----|
G|--9-----9-----------------------6-4~-6~-4~-6~---------9-----9------|
D|--------------------------9-7-6---4~-6~-4~-6~----------------------|
A|-------------------------------------------------------------------|
E|-------------------------------------------------------------------|

e|-----7-------------------------------------------------|
B|9-10---10-9-7------------------------------------------|
G|--------------------6-4~-6~-4~-6~-4-2--4~-6~-4~-6~-4-2-|
D|--------------9-7-6---4~-6~-4~-6~-4-2--4~-6~-4~-6~-4-2-|
A|-------------------------------------------------------|
E|-------------------------------------------------------|

e|---------------------------------------------------------------------|
B|-10-9-7--------------------------------------------------------------|
G|--------9-8-6--------6---4~------------------------------------------|
D|--------------9/7--6---6-4~------------------------------------------|
A|---------------------------------------------------------------------|
E|---------------------------------------------------------------------|

...And that’s it!



-Ifyhard
            
Tabs too difficult? Try these video lessons and learn fast.




comments powered by Disqus
↑ Back to top | Tablatures and chords are parodies/interpretations of the original songs. You may use it for private study, scholarship, research or language learning purposes only