» » »

The Town Halo Tabs (ver.1)

Artists:  A B C D E F G H I J K L M N O P Q R S T U V W X Y Z # 

The Town Halo Tabs (ver.1)

Ac Newman
Rating:
3/5 (2 votes)

Hard to play? Try these video lessons and learn fast.
                Intro:

Cello riff:       
e|------------|
b|------------|
g|--------2---|
d|----2-4--2s4|
a|-4----------|
e|------------|

Piano plays octaves on C#
e|----------------------9999999999999999-|
b|-------------------or------------------|
g|-66666666666666666----6666666666666666-|
d|---------------------------------------|
a|-44444444444444444---------------------|
e|---------------------------------------|

Chorus riff:
(piano tabbed for guitar)
e|-----0-0-0-0-----|
b|-0-0--1-1-2-2-2-2|
g|--1-1------------|
d|-------------4-4-| x 2
a|-----------------|
e|-----------------|

Bridge parts:
Part 1:
e|-7777999977774444-|4----|
b|-9999999999995555b|6----|
g|------------------|-----|
d|------------------|-----|
a|------------------|-----|
e|------------------|-----|

Part 2:
(different guitars play the power chords, lead parts and chords)
e|-0s7s0-|-9-----|-0s2s5-|-9-----|
b|-------|-9-----|-------|-9-----|
g|-------|-10----|-------|-10----|
d|-2s9s2-|-11-x8-|-2s9s2-|-11-x8-|
a|-2s9s2-|-11----|-2s9s2-|-11----|
e|-0s7s0-|-9-----|-0s7s0-|-9-----|



Intro riff x 4

Verse:
C#
Up through the crystal, nineteen and counting, 
And miles away, a voice from the mountain. 
Back from the program, our own girl Jesus,
                                          E 
So proud to say we love her to pieces. We do. 

Chorus:
E  Am   A           F#     E   Am   A         F#            B  E  A  
     So tell us the story again, of how you became the town halo. 
         B  E  A
The town halo.

(intro)

Verse:
Up through the crystal, raised on mythology, 
She winds her way from truth to apology, 
Topless in new wings, free for the taking, 
And miles away, a foundation shaking for you 

Chorus:
So tell us the story again, of how you became the town halo. The town halo.

(intro)

Bridge:
part 1
intro riff x4
part 2 x 2 
intro riff x 4

Verse:
Under construction but based on a true one, 
The facts will change so tell us what you want. 
Air from a bottle, the press can't breathe it. 
We're proud to say we love her to pieces. We do. 

Chorus:
So tell us the story again, of how you became the town halo. The town halo.

Outro:
intro riff x4
bridge part 1
intro riff x 4
end on C#
            
Hard to play? Try these video lessons and learn fast. | Correct




comments powered by Disqus
↑ Back to top | Tablatures and chords are parodies/interpretations of the original songs. You may use it for private study, scholarship, research or language learning purposes only