» » »

Acid Eyeliner, Scream Your Name Tabs (ver.1)

Artists:  A B C D E F G H I J K L M N O P Q R S T U V W X Y Z # 

Scream Your Name Tabs (ver.1)

Acid Eyeliner Tabs
 Rating:
4.2/5 (5 votes)
Scream Your Name lessons Tabs too difficult? Try these video lessons and learn fast
                
This is the tab for Scream Your Name by Acid Eyeliner taken from there 

Intro Chords

||  A  |  B  |  C#m  |  E  ||

|  A  |  G#  |  C#m  | %  |

 INTRO / CHORUS
                                           X3 
e|-------------------------------------------|
B|--------------12-12-12---------------------|
G|-9-9-9-8-8-8------------9-9-9-8-9-8-----8--|
D|-------------------------------------11----|
A|-------------------------------------------|
E|-------------------------------------------|

e||---------------------------------------||
B||---------------------------------------||
G||-9-9-9-8-8-8-11-11-11-9-9-9-8-9-8----8-||
D||----------------------------------11---||
A||---------------------------------------||
E||---------------------------------------||

VERSE

e|---------|-----------|---------|------------|
B|---------|-----------|---------|------------|
G|------4--|-------4---|-------4-|-------4/6--|
D|----2----|-----2-----|-----2---|----2-------|
A|-4-------|--0--------|--2------|--0---------|
E|---------|-----------|---------|------------|

BRIDGE

|  F#m  |  A  |  E  |  A  |

|  F#m  |  A  |  F#m  |  B  |


|| = Repeat
/ = Slide To
            
Submit corrections

comments powered by Disqus
↑ Back to top | Acid Eyeliner Tabs for Scream Your Name. Lyrics for acoustic guitar and electric guitar. Tablatures and chords are parodies/interpretations of the original songs. You may use it for private study, scholarship, research or language learning purposes only