» » »

Acid Eyeliner, Red Light Racecar Driver Tabs (ver.1)

Artists:  A B C D E F G H I J K L M N O P Q R S T U V W X Y Z # 

Red Light Racecar Driver Tabs (ver.1)

Acid Eyeliner Tabs
Rating:
0/5 (0 votes)
Red Light Racecar Driver lessons Tabs too difficult? Try these video lessons and learn fast
                (Track 5 off their debut album)



Tune 1/2 step down
1=D#, 2=A#, 3=F#, 4=C#, 5=G#, 6=D#

Intro:

D#||------------------------|-------------------|
A#||------------------------|-------------------|
F#||------------------------|-------------------|
C#||--4-4--5-5-5-4-4--------|---5-5-5-4-4-------|
G#||--2-2------------5-2--2-|-2-----------5-2---|
D#||----------------------0-|-0---------------3-|

D#|-----------------------|---------------------||
A#|-----------------------|---------------------||
F#|-----------------------|---------------------||
C#|---2-4-----2-4---------|---2-4-----2-4-------||
G#|---------------------0-|-0-----0-0-----0-0-0-||
D#|-3-----3-3-----3-3-3---|---------------------||

Verse:

||      |       |       |       ||
||      |       |       |       ||  
||  B5  |  E5   |  G5   |  A5   ||
||      |       |       |       ||
||      |       |       |       ||
||      |       |       |       ||

Chorus:

||      |       |       |        ||
||      |       |       |        || 
||  B5  |  E5   |  G5   | D5  A5 ||  
||      |       |       |        ||  
||      |       |       |        ||  
||      |       |       |        ||  

Solo:
                    X2                                  X2
D#|-------------------|-----------------------------------|
A#|-------------------|----10-8-7-8-7---7-----------------|
F#|-------------------|---------------9---9-7-6h7p6---6---|
C#|-----5-5-5-4-4-----|-/9--------------------------9---7-|
G#|---------------5-2-|-----------------------------------|
D#|-3-3---------------|-----------------------------------|

                    X2                                  
D#|-------------------|-----------------------------------|
A#|-------------------|----10-8-7-8-7---7-----------------|
F#|-------------------|---------------9---9-7-6h7p6---6---|
C#|-----5-5-5-4-4-----|-/9--------------------------9---7-|
G#|---------------5-2-|-----------------------------------|
D#|-3-3---------------|-----------------------------------|

D#|------------------------7-10-9-7----|--------|
A#|----10-8-7-8-7---7-8-10----------10/|12~~~~~~|
F#|---------------9--------------------|--------|
C#|-9----------------------------------|--------|
G#|------------------------------------|--------|
D#|------------------------------------|--------|

h = Hammer on
P = Pull off
~ = Vibrato
/ = Slide to
            

comments powered by Disqus
↑ Back to top | Acid Eyeliner Tabs for Red Light Racecar Driver. Lyrics for acoustic guitar and electric guitar. Tablatures and chords are parodies/interpretations of the original songs. You may use it for private study, scholarship, research or language learning purposes only